Oops, an error
Loading. Please wait.

Its Her Bass Tab

53 views 1 this week
no commentswrite comment
1 2 3 4 5
please rate
add to favorites
launch autoscroll
font size
0
reset
guitar tuner
Tab Pro tools
  • play this tab
  • loop segment
  • change instrument
  • show fretboard
  • metronome
Autoscroll
slow
fast
+/-
esc
set tempo
stop
Its Her Bass Tab
Radio Racer

Intro(0:03-0:14)

E|-----------------------------------|
A|-----------------------------------|
D|-333333333--5555-------------5555--| x2
G|------------------333333333--------|

Verse1(0:15-0:38)

E|-----------------------|
A|-----------------------|
D|-----------------------| x2
G|-33-33-4444-33-33-4444-|

E|--------------------------------|
A|--------------------------------|
D|--------------------------------|
G|-33-33-33-33-4444-33-33-33-4444-|


E|--------------------------------|
A|--------------------------------|
D|--------------------------------|
G|-33-33-33-33-4444-3333333--2----|

Chorus(0:39-1:03)

E|----------------------------|
A|----------------------------|
D|-333333-------5555555555555-| x4
G|--------33333---------------|

Verse2(1:04-1:26)

E|-----------------------|
A|-----------------------|
D|-----------------------| x2
G|-33-33-4444-33-33-4444-|

E|--------------------------------|
A|--------------------------------|
D|--------------------------------|
G|-33-33-33-33-4444-33-33-33-4444-|


E|--------------------------------|
A|--------------------------------|
D|--------------------------------|
G|-33-33-33-33-4444-3333333--2----|


Chorus(1:27-1:51)

E|----------------------------|
A|----------------------------|
D|-333333-------5555555555555-| x4
G|--------33333---------------|


Bridge(1:52-2:27)

E|--------------------|
A|--------------------|
D|-33---55--------55--| x4
G|-----------33-------|

E|
A|------------------|
D|-33----55---------| x4
G|-------------33---|

No guitar part(2:28-2:40)

Chorus(2:41-3:04)

E|----------------------------|
A|----------------------------|
D|-333333-------5555555555555-| x4
G|--------33333---------------|

Outro(3:05-3:34)

E|---------------------------|
A|---------------------------|
D|-3---5-------3---3---5-----|
G|---------3---------------0-|
comments
We did not receive enough feedback on this tab! Please rate:
print report bad tab
1 2 3 4 5
I want to post or [tab]
guest
You may want to rate the tab now too:
select rating
Please do not post tabs as comments. Select "correction" instead!