Oops, an error
Loading. Please wait.

Its Her Tab

199 views 1 this week
no commentswrite comment
1 2 3 4 5
please rate
add to favorites
launch autoscroll
font size
0
reset
how to read this tab
guitar tuner
Tab Pro tools
  • play this tab
  • loop segment
  • change instrument
  • show fretboard
  • metronome
Autoscroll
slow
fast
+/-
esc
set tempo
stop
Contributor
Song Title: It's Her
Artist: Radio Racer
Album: Crash The City
Standard Tuning

Ok so this is my first time to tab a song and I badly want to play this song so I tried to tab it.
Comment on my tab if there are wrong parts to correct. :]
Thankyou :D



Intro(0:00-0:14)
e|---------------------------------------------------------------|
B|---------------------------------------------------------------|
G|-9-9-------9-9-------6-6--4-4--9-9-------9-9--------6-6--4-4---|
D|-9-9--7-7--9-9--7-7--6-6--4-4--9-9--7-7--9-9---7-7--6-6--4-4---|
A|-7-7--7-7--7-7--7-7--4-4--2-2--7-7--7-7--7-7---7-7--4-4--2-2---|
E|------5-5-------5-5-----------------5-5--------5-5-------------|

e|---------------------------------------------------------|
B|---------------------------------------------------------|
G|-9-9-------9-9--------6-6~--9-9-------9-9-------6-6--4-4-|
D|-9-9--7-7--9-9--7-7---6-6~--9-9--7-7--9-9--7-7--6-6--4-4-|
A|-7-7--7-7--7-7--7-7---4-4~--7-7--7-7--7-7--7-7--4-4--2-2-|
E|------5-5-------5-5--------------5-5-------5-5-----------|

e|------------------|
B|------------------|
G|-9-9-------0--4~--|
D|-9-9--7-7--0--4~--|
A|-7-7--7-7--0--2~--|
E|------5-5---------|

Verse 1(0:15-0:38)
e|---------------|
B|---------------|
G|---------------|
D|-5-/-5-\-5-/-5-| x2
A|-5-/-5-\-5-/-5-|
E|-3-/-7-\-3-/-7-|
   .   .   .   .

e|------------------------------|
B|------------------------------|
G|------------------------------|
D|-5-/-5-\-5-/-5-\-5-/-5--5--4~-|
A|-5-/-5-\-5-/-5-\-5-/-5--5--4~-|
E|-3-/-7-\-3-/-7-\-3-/-7--3--2~-|
   .   .   .   .   .   .

Chorus(0:39-1:03)
e|---------------|
B|---------------|
G|-5---------7---|
D|-5----5----7---| x4
A|-3----5----5---|
E|------3--------|

Verse2(1:04-1:26)
e|---------------|
B|---------------|
G|---------------|
D|-5-/-5-\-5-/-5-|
A|-5-/-5-\-5-/-5-|
E|-3-/-7-\-3-/-7-|
   .   .   .   .

e|----------------|
B|----------------|
G|----------------|
D|-5-/-5-\-5-/-5~-|
A|-5-/-5-\-5-/-5~-|
E|-3-/-7-\-3-/-7~-|
   .   .   .   

e|------------------------------|
B|------------------------------|
G|------------------------------|
D|-5-/-5-\-5-/-5-\-5-/-5--5--4~-|
A|-5-/-5-\-5-/-5-\-5-/-5--5--4~-|
E|-3-/-7-\-3-/-7-\-3-/-7--3--2~-|
   .   .   .   .   .   .

Chorus(1:27-1:51)
e|---------------|
B|---------------|
G|-5---------7---|
D|-5----5----7---| x4
A|-3----5----5---|
E|------3--------|


Bridge(1:52-2:27)
e|-------------|
B|-------------|
G|-5~-7~----7~-|
D|-5~-7~-5~-7~-| x4
A|-3~-5~-5~-5~-|
E|-------3~----|

e|---------------------|
B|---------------------|
G|-5-5~---5-5~---------|
D|-5-5~---5-5~---5-5~--| x4
A|-3-3~---7-7~---5-5~--|
E|---------------3-3~--|

(2:28-2:40)

Chorus(2:41-3:04)
e|---------------|
B|---------------|
G|-5---------7---|
D|-5----5----7---| x4
A|-3----5----5---|
E|------3--------|

Outro(3:05-3:34)
e|---------|
B|---------|
G|-5~--5~--|
D|-5~--5~--| x3
A|-3~--7~--|
E|---------|

e|---|
B|---|
G|---|
D|-x-|
A|-x-|
E|-x-|
comments
We did not receive enough feedback on this tab! Please rate:
print report bad tab
1 2 3 4 5
I want to post or [tab]
guest
You may want to rate the tab now too:
select rating
Please do not post tabs as comments. Select "correction" instead!