Oops, an error
Loading. Please wait.

Its Them I Dont Trust Tab

174 views 1 this week
2 commentsread comments
1 2 3 4 5
please rate
add to favorites
launch autoscroll
font size
0
reset
how to read this tab
guitar tuner
Autoscroll
slow
fast
+/-
esc
set tempo
stop
Help us to improve Ultimate-Guitar.com Take our survey!
×
Author
Difficulty
intermediate
Radio Racer-It’s Them I Don’t Trust
Away From California 2004



-Dropped D tuning, all guitars tuned a half step down

-Listen for rhythms 

- (*’s = mute)


Intro (part 1) Clean 2x

e|--0------0------0--0----0------|
B|--0------0------2--0----0------|
G|--6------9------2--2----2------|
D|--7------9------0--0----2------|
A|--4------7------0--0----2—-----|
D|--4------7------0--0----2------|

Intro (part 2) Distortion 2x

e|--0------0------0--0----0------|
B|--0------0------2--0----0------|
G|--6------9------2--2----2------|
D|--7------9------0--0----2------|
A|--4------7------0--0----2—-----|
D|--4------7------0--0----2------|



Verse (lead) Clean 3x

e|---------------------------------------------------------|
B|--------------0-----0--------------------0-----0---------|
G|-----------6-------------------------6-------------------|
D|-----7-----------7-----7-------7------------7-----7------|
A|---------------------------------------------------------|
D|--4-------------------------4----------------------------|

e|---------------------------------------------------------|
B|--------------0-----0--------------------0-----0---------|
G|-----------6-------------------------6-------------------|
D|-----7-----------7-----7-------7------------7-----7------|
A|---------------------------------------------------------|
D|--0-------------------------0----------------------------|


Verse (rhythm) Distortion 3x

e|--------------------------------------|
B|--------------------------------------|
G|--------------------------------------|
D|--------------------------------------|
A|--4--4--*--4—-4--*------0--0-—*--0--*-|
D|--4--4--*--4--4--*------0--0--*--0--*-|





Pre-Chorus (lead) 

e|--------------------------------------|
B|--------------------------------------|
G|-----6--------9------6----------------|
D|--7-----9--7-----7-------9------------|       3x
A|--------------------------------------|
D|--------------------------------------|

Pre-Chorus (rhythm) 

e|--------------------------------------|
B|--------------------------------------|
G|--------------------------------------|       1x
D|--0—----(let ring)------2--*----------|
A|--0---------------------2--*----------|
D|--0---------------------2--*----------|


Chorus 

e|--0------0------0------0------|
B|--0------0------0------0------|
G|--6------9------6------2------|       1x
D|--7------9------7------2------|
A|--4------7------4------2—-----|
D|--4------7------4------2------|

e|--0------0------0--0----0------|
B|--0------0------2--0----0------|
G|--6------9------2--2----2------|      1x
D|--7------9------0--0----2------|
A|--4------7------0--0----2—-----|
D|--4------7------0--0----2------|


Bridge (part 1) Clean 2x

e|--0------0------0--0----0------|
B|--0------0------2--0----0------|
G|--6------9------2--2----2------|
D|--7------9------0--0----2------|
A|--4------7------0--0----2—-----|
D|--4------7------0--0----2------|








Bridge (part 2, lead) Distortion 2x

e|--------------------------------------------------------------------
B|--------------------------------------------------------------------
G|-13--14-14-14-14-14-14-14-14-6-6-6-6-11-11-11-11-13-13-13-13-13-13-
D|--------------------------------------------------------------------
A|-11--12-12-12-12-12-12-12-12-4-4-4-4--9--9--9--9-11-11-11-11-11-11-
D|--------------------------------------------------------------------

e|---------------------------------------------------------------------
B|---------------------------------------------------------------------
G|13-13-13-13-6-6-6-6-11-11-11-11-11-11-11-9-9-9-11-11-11-9-9-9-9-9-9-9
D|---------------------------------------------------------------------
A|11-11-11-11-4-4-4-4-9--9--9--9--9—-9—-9--7-7-7--9--9--9-7-7-7-7-7-7-7
D|---------------------------------------------------------------------

e|----------------------------------------------------|
B|----------------------------------------------------|
G|-13-13-13-13-13-13-13-13-6-6-6-6-11-11-11-11--------|
D|----------------------------------------------------| 
A|-11-11-11-11-11-11-11-11-4-4-4-4--9--9--9--9--------|
D|----------------------------------------------------|


Bridge (rhythm-strumming) 

e|--0--------0--------0--------0-------------|
B|--0--------0--------2--------0-------------|
G|--6--------4--------2--------4-------------| 2x
D|--4--------2--------0--------2-------------|
A|--4--------2--------0--------2-------—-----|
D|--4--------2--------0--------2-------------|

Then…

e|--0--------------------------0--*--0--*--------|
B|--2--------------------------0--*--0--*--------|
G|--2--------------------------4--*--4--*--------|
D|--0----(let ring)------------2--*--2--*--------|
A|--0--------------------------2--*--2--*--------|
D|--0--------------------------2--*--2--*--------|


Outro
 
e|--0--------0--------0--0------0-------------|
B|--0--------0--------2--0------0-------------|
G|--6--------2--------2--2------2-------------| 
D|--7--------2--------0--0------2-------------|
A|--4--------2--------0--0------2-------—-----|
D|--4--------2--------0--0------2-------------|



Suggest correction
Give kudos to tab author, rate the tab!
1 2 3 4 5
comments
print report bad tab
2 comments total.
0 reply
DarkDallasNight 182 wrote on June 1 2007, 12:56 am

What is this the live version???

0 reply
DarkDallasNight 182 wrote on June 1 2007, 12:56 am

This is like drop c correct? Its good tab btw.

guest
You may want to rate the tab now too:
select rating
Please do not post tabs as comments. Select "correction" instead!