Oops, an error
Loading. Please wait.

2 2 5 tab

version 5
version 5

Whole song

Interactive

878 views 12 this week
no commentswrite comment
1 2 3 4 5
1 last vote to show rating
add to favorites
×
Save as Personal and add changes to this tab that will be seen only by you. Learn more ›
×
You can save this tab as Personal to edit and correct it or add notes. All changes will be seen only by you. Learn more »
launch autoscroll
font size
0
reset
how to read this tab
guitar tuner
edit
Autoscroll
slow
fast
+/-
esc
set tempo
stop
Author
Radiohead - 2+2=5

From the album Hail to the Thief

Standard Tuning (I know a lot of people play this in Drop D tuning but I'm lazy and I think it
                 sounds pretty great like this)

Intro:

Gtr. 1
   Fm                           Em#5addb9
e|-----------------------------------------------------------|
B|-----------------------------------------------------------|
G|--1-------------1-------------0-------------0--------------|
D|------3-------3-----3-------3-----3-------3-----3-------3--| x2
A|----3---3---3-----3---3---3-----3---3---3-----3---3---3----|
E|--1-------1-----1-------1-----0-------0-----0-------0------|


Verse:

Gtr. 1:
    Fm                          Em#5addb9
e|-----------------------------------------------------------|
B|-----------------------------------------------------------|
G|--1-------------1-------------0-------------0--------------|
D|------3-------3-----3-------3-----3-------3-----3-------3--| x3
A|----3---3---3-----3---3---3-----3---3---3-----3---3---3----|
E|--1-------1-----1-------1-----0-------0-----0-------0------|

Are you such a dreamer
To put the world to rights
I'll stay home forever

    F                          D/F#          Gm
e|-----------------------------------------------------------|
B|-----------------------------(3)-----------(3)-------------|
G|--2-------------2-------------2-------------3--------------|
D|------3-------3-----3-------3-----0-------0-----5-------5--|
A|----3---3---3-----3---3---3-----0---0---0-----5---5---5----|
E|--1-------1-----1-------1-----2-------2-----3-------3------|

Where two and two always makes a

    C#            C
e|-----------------------------------------------------------|
B|-----------------------------(1)-----------(1)-------------|
G|--1-------------0-------------0-------------0--------------|
D|------3-------3-----2-------2-----2-------2-----2-------2--|
A|----4---4---4-----3---3---3-----3---3---3-----3---3---3----|
E|--1-------1-----0-------0-----0-------0-----0-------0------|

five

[Repeat Section Once More for the 2nd Half of the Verse]

I'll lay down the tracks
Sandbag and hide
January has April showers
And two and two always makes a five


Pre-Chorus:

Gtr. 2:
    Fm               C            Fm          G5
e|------------------------------------------------------------|
B|-----9---9---9---9---8---8---8---8--6--6--6--6--8--8--8--8--|
G|---10--10--10--10---9---9---9---9--5--5--5--5--5--5--5--5---|
D|--10--10--10--10--10--10--10--10--6--6--6--6--5--5--5--5----|
A|------------------------------------------------------------|
E|------------------------------------------------------------|

    A#sus4            G#sus4                  C
e|---------------------------------------------------------------------------|
B|----11--11--11--11--9--9--9--9--9--9--9--9---8---8---8---8---8---8---8---8-|
G|---8---8---8---8---6--6--6--6--6--6--6--6---9---9---9---9---9---9---9---9--|
D|--8---8---8---8---6--6--6--6--6--6--6--6--10--10--10--10--10--10--10--10---|
A|---------------------------------------------------------------------------|
E|---------------------------------------------------------------------------|


Gtr. 1:
    C#/F         C/E         C#          C
e|-----------------------------------------------------------------|
B|----6--6--6--6--5--5--5--5--2--2--2--2--1--1--1--1--1--1--1--1---|
G|-----------------------------------------------------------------|
D|---6--6--6--6--5--5--5--5--3--3--3--3--2--2--2--2--2--2--2--2----|
A|--8--8--8--8--7--7--7--7--4--4--4--4--3--3--3--3--3--3--3--3-----|
E|-----------------------------------------------------------------|

    D#           C#                      C
e|-----------------------------------------------------------------|
B|----4--4--4--4--2--2--2--2--2--2--2--2--1--1--1--1--1--1--1--1---|
G|-----------------------------------------------------------------|
D|---5--5--5--5--3--3--3--3--3--3--3--3--2--2--2--2--2--2--2--2----|
A|--6--6--6--6--4--4--4--4--4--4--4--4--3--3--3--3--3--3--3--3-----|
E|-----------------------------------------------------------------|


Gtr. 3 / Chords:

   Fm   C/E    C#   C/E   C/E    D#    C#       C#      C/E   C/E
e|-------------------------------------------------------------------|
B|-9-----8-----6-----8-----8-----8-----6-(/11)--6-(/11)--8-----8-----|
G|-10----9-----6-----9-----9-----8-----6-(/11)--6-(/11)--9-----9-----|
D|-10----10----6-----10----10----8-----6-(/11)--6-(/11)--10----10----|
A|-8-----7-----4-----7-----7-----6-----4-(/9 )--4-(/9 )--7-----7-----|
E|-------------------------------------------------------------------|

Guitar 3 picks between the A and B strings of these chords, or you can just strum the chords

It's the devil's way now
There is no way out
You can scream and you can shout
It is too late now
 

Chorus:

Gtr. 2:

Lead Guitar continues to play the arpeggio riff from the pre-chorus.

Gtr. 1:

   Fm   C/E    C#    C     C     D#    C#       C#       C     C
e|-------------------------------------------------------------------|
B|-9-----8-----6-----5-----5-----8-----6-(/11)--6-(/11)--5-----5-----|
G|-10----9-----6-----5-----5-----8-----6-(/11)--6-(/11)--5-----5-----|
D|-10----10----6-----5-----5-----8-----6-(/11)--6-(/11)--5-----5-----|
A|-8-----7-----4-----3-----3-----6-----4-(/9 )--4-(/9 )--3-----3-----|
E|-------------------------------------------------------------------|

Because you have not been, payin' attention
Payin' attention, payin' attention, Payin' attention

You have not been, payin' attention
Payin' attention, payin' attention, payin' attention

You're not really payin' attention
Payin' attention, payin' attention, payin' attention

You have not been payin' attention
Payin' attention, payin' attention, payin' attention


Bridge:

Gtr. 1:
   G#6      A#6   G#6         A#6   G7           
e|-------------------------------------------------------------------|
B|--6---6----8----6---6---6----8----6---6---6----6----6---6---6----6-|
G|--5---5----7----5---5---5----7----4---4---4----4----4---4---4----4-|
D|--x---x----x----x---x---x----x----x---x---x----x----x---x---x----x-| x2
A|--6---6----8----6---6---6----6----5---5---5----5----5---5---5----5-|
E|--4---4----6----4---4---4----8----3---3---3----3----3---3---3----3-|

Gtr. 2:
   G#6      A#6   G#6         A#6   G7
e|-------------------------------------------------------------------|
B|--6---6----8----6---6---6----8----6---6---6----6----6---6---6----6-|
G|--5---5----7----5---5---5----7----4---4---4----4----4---4---4----4-|
D|--6---6----8----6---6---6----8----5---5---5----5----5---5---5----5-| x2
A|-------------------------------------------------------------------|
E|-------------------------------------------------------------------|


Outro:

Gtr. 1:
    C#6        G#6      C#6        G#6      G7       
e|------------------------------------------------------------------------|
B|--11--11--x--6--6--x--11--11--x--6--6--x--6--6--x--6---6--6--6--x--6--x-|
G|--10--10--x--5--5--x--10--10--x--5--5--x--4--4--x--4---4--4--4--x--4--x-| 
D|--x---x---x--x--x--x--x---x---x--x--x--x--x--x--x--x---x--x--x--x--x--x-| x3
A|--11--11--x--6--6--x--11--11--x--6--6--x--5--5--x--5---5--5--5--x--5--x-|
E|--9---9---x--4--4--x--9---9---x--4--4--x--3--3--x--3---3--3--3--x--3--x-|

    G7
e|------------------------------------------------------------------|
B|--6--6--x--6---6--6--6--x--6---6--6--6--x--6---6--6--6--x--6---6--|
G|--4--4--x--4---4--4--4--x--4---4--4--4--x--4---4--4--4--x--4---4--| 
D|--x--x--x--x---x--x--x--x--x---x--x--x--x--x---x--x--x--x--x---x--| x1
A|--5--5--x--5---5--5--5--x--5---5--5--5--x--5---5--5--5--x--5---5--|
E|--3--3--x--3---3--3--3--x--3---3--3--x--3--x---3--3--3--x--3---3--|

You add an occasional G#6 when you’re strumming the G7 in this section if you want.

Gtr. 2:
    C#6        G#6      C#6        G#6      G7       
e|------------------------------------------------------------------------|
B|--11--11--x--6--6--x--11--11--x--6--6--x--6--6--x--6---6--6--6--x--6--x-|
G|--10--10--x--5--5--x--10--10--x--5--5--x--4--4--x--4---4--4--4--x--4--x-|
D|--11--11--x--6--6--x--11--11--x--6--6--x--5--5--x--5---5--5--5--x--4--x-| x3
A|------------------------------------------------------------------------|
E|------------------------------------------------------------------------|

    G7
e|------------------------------------------------------------------|
B|--6--6--x--6---6--6--6--x--6---6--6--6--x--6---6--6--6--x--6---6--|
G|--4--4--x--4---4--4--4--x--4---4--4--4--x--4---4--4--4--x--4---4--| 
D|--5--5--x--5---5--5--5--x--5---5--5--5--x--5---5--5--5--x--5---5--| x1
A|------------------------------------------------------------------|
E|------------------------------------------------------------------|

[Repeat this Outro Section Twice]

I try to sing along but I get it all wrong
Cos I'm not, Cos I'm not

I swat em like flies, but like flies that bitch keep
Coming right back, But I'm not

Oh hail to the thief, Oh hail to the thief
But I'm not, But I'm not
But I'm not, But I'm not

Don't question my authority or put me in the box
Cos I'm not, Cos I'm not

Oh go up to the king, and the sky is falling in
But it's not, But it's not, But it's not
Maybe not, Maybe not


NB: I haven't included the high-pitched solo at the end but its basically just some fast strumming
and bending of notes on the top two strings right at the top of the fretboard.

            
            
Suggest correction
Creating personal tab
Creating personal tab
You can edit any tab online and save it as your Personal.

You can edit, replace or remove any tab part or add personal notes – all changes will be seen only by you.

Personal tabs can be accessed anytime from any device, even offline.
Learn more »
Give kudos to tab author, rate the tab!
1 2 3 4 5
comments
print report bad tab
guest
You may want to rate the tab now too:
select rating
Wanna post a correction for this tab? Suggest correction