Oops, an error
Loading. Please wait.

A Moon Shaped Pool album chords

17,284 views 186 this week
4 commentsread comments
1 2 3 4 5
x 16
add to favorites
×
Save as Personal and add changes to this tab that will be seen only by you. Learn more ›
×
You can save this tab as Personal to edit and correct it or add notes. All changes will be seen only by you. Learn more »
launch autoscroll
font size
0
reset
transpose
0
reset
simplify chords
display chords
guitar tuner
edit
Autoscroll
slow
fast
+/-
esc
set tempo
stop
Author
Strumming
There is no strumming pattern for this song yet. and get +5 IQ
                     .----------------------------------------.
                     |     Radiohead – A Moon Shaped Pool     |
                     '----------------------------------------'

Radiohead’s 9th studio album
Release date: May 8, 2016


-- Track listing –

1.  Burn the Witch
2.  Daydreaming
3.  Decks Dark
4.  Desert Island Disk
5.  Ful Stop
6.  Glass Eyes
7.  Identikit
8.  The Numbers
9.  Present Tense
10. Tinker Tailor Soldier Sailor Rich Man Poor Man Beggar Man Thief
11. True Love Waits


-----------------------------------------------------------------------------------
                              Track 1 – Burn the Witch 
-----------------------------------------------------------------------------------


Intro + Verse     Chorus + Outro
-------------     --------------------
F#     x44322     F#  x44322
Eadd9  022102     D   xx023x or x5770x
E      022100     E   02210x or x7990x
C#     x4666x     A   x022xx or 57765x
B      x2444x     B   x2444x or 79987x
D      x0023x     


[Intro]

    F#                                  Eadd9             E
e|--2-2-2-2-2-2-2-2-|-2-2-2-2-2-2-2-2-|-2-2-2-2-2-2-2-2-|-0-0-0-0-0-0-0-0--|
B|--2-2-2-2-2-2-2-2-|-2-2-2-2-2-2-2-2-|-0-0-0-0-0-0-0-0-|-0-0-0-0-0-0-0-0--|
G|--3-3-3-3-3-3-3-3-|-3-3-3-3-3-3-3-3-|-1-1-1-1-1-1-1-1-|-1-1-1-1-1-1-1-1--|
D|--4-4-4-4-4-4-4-4-|-4-4-4-4-4-4-4-4-|-2-2-2-2-2-2-2-2-|-2-2-2-2-2-2-2-2--| x4
A|--4-4-4-4-4-4-4-4-|-4-4-4-4-4-4-4-4-|-2-2-2-2-2-2-2-2-|-2-2-2-2-2-2-2-2--|
E|------------------|-----------------|-0-0-0-0-0-0-0-0-|-0-0-0-0-0-0-0-0--|


[Verse 1]

F#             Eadd9   E
   Stay in the shadows
F#              Eadd9   E
   Cheer at the gallows
F#           Eadd9    E
   This is a round up
F#           Eadd9      E
   This is a low flying panic attack
C#                      B
   Sing the song on the jukebox that goes


[Chorus 1]

F#   D E          A B
Bu-u-u-urn the wi-i-itch
F#   D E          A B
Bu-u-u-urn the wi-i-itch
F#       D  E             A B
We kno-o-ow where you live


[Verse 2]

F#                Eadd9  E
   Red crosses on wooden doors
F#        Eadd9     E
   If you float you burn
F#                   Eadd9   E
   Loose talk around tables
D          E
   Abandon all reason


F#           Eadd9  E
   Avoid all eye contact
F#    Eadd9  E
   Do not  react
F#           Eadd9  E
   Shoot the messengers
F#           Eadd9      E
   This is a low flying panic attack
C#                  B
   Sing the song of sixpence that goes


[Chorus 2]

F#   D E          A B
Bu-u-u-urn the wi-i-itch
F#   D E          A B
Bu-u-u-urn the wi-i-itch
F#       D  E             A B
We kno-o-ow where you live
F#       D  E             A B
We kno-o-ow where you live


[Outro]

D  E
D  E
F#


-----------------------------------------------------------------------------------
                               Track 2 – Daydreaming 
-----------------------------------------------------------------------------------


Intro and Verse      Interlude
---------------      ---------------
Am     x07555        Dsus2    xx7755
C/F    xx3553        Dm       xx7765
C      xx2013        Dsus2/A  5x7755
Fmaj7  xx3555        Dm/A     5x7765
Dm7    xx0311
G7     xx0001
G      xx0003


[Intro]

Am  C/F  C  Fmaj7
Am  C/F  C  Dm7
G7  G
G7  G


[Verse 1]

Main riff:

       Play during Am            Play during C/F
e|-5-----5-----5-----5-----|-3-----3-----3-----3-----|
B|-----5-----5-----5-----5-|-----3-----3-----3-----3-|
G|---7-----7-----7-----7---|---5-----5-----5-----5---|
D|-------------------------|-------------------------|
A|-------------------------|-------------------------|
E|-------------------------|-------------------------|

       Play during C            Play during Fmaj7
e|-3-----3-----3-----3-----|-5-----5-----5-----5-----|
B|-----3-----3-----3-----3-|-----5-----5-----5-----5-|
G|---5-----5-----5-----5---|---7-----7-----7-----7---|
D|-------------------------|-------------------------|
A|-------------------------|-------------------------|
E|-------------------------|-------------------------|


Am             C/F               C     Fmaj7
Dreamers, they never learn, they never learn
  Am                 C/F           C    Fmaj7
Beyond the point, of no return, of no return
         Am            C/F                 C         Dsus2
And it's too late, the damage is done, the damage is done


[Interlude]

Dsus2    Dm  
Dsus2    Dm  
Dsus2/A  Dm/A
Dsus2/A  Dm/A


[Verse 2]

Am           C/F        C        Fmaj7
This goes, beyond me, beyond you
    Am             C/F               C        Fmaj7
The white room, by window, where the sun goes through
Am          C/F                  C               Dsus2
We are just happy to serve, just happy to serve, you


[Interlude]

Dsus2    Dm  
Dsus2    Dm  
Dsus2/A  Dm/A 
Dsus2/A  Dm/A  


-----------------------------------------------------------------------------------
                               Track 3 – Decks Dark
-----------------------------------------------------------------------------------


Chorus            Verse           Outro
-------------     -----------     -------------
A      x02220     E    0221xx     E5     022xxx
Fmaj7  x33210     C/G  3320xx     Esus4  0222xx
Dsus2  xx0230     F    1032xx     Em     0220xx
A/C#   x42220     Dm   x0023x     B5     x244xx
G6     xx0030
A#     x1333x
E      02210x


Capo 5th fret


[Chorus 1]
  
    A            Fmaj7       Dsus2   A/C#
And in your life ----- there comes a darkness
          Fmaj7     G6         Dsus2   A/C#
There’s a spacecraft, blocking out the sky
    Fmaj7           Dsus2    A/C#
And there's nowhere ----- to hide
    Fmaj7          G6        Dsus2      A/C#
You run to the back, and you cover your ears
             Fmaj7         Dsus2             A/C#
But it's the loudest sound ----- you've ever heard
Fmaj7         G6    Dsus2      A/C#
Are we trapped, rag doll cloth people
       Fmaj7    Dsus2      A/C#
We are helpless ----- to resist
Fmaj7   A#      E
In your darkest hour


E  C/G  F  Dm
E  C/G  F  Dm

[Verse 1]

                  E                             C/G
But it was just a laugh, just a lie, just a laugh, just a lie
             F 
Even at this angle
          Dm
And so we crumble
              E                                       C/G    
Still turning heads, you know where it's at, this dread still covers us
             F
You gotta be kidding me
                Dm
The grass grows over me
                 E                                      C/G
Your face in the glass, in the glass, it was just a laugh, just a laugh
                  F
It's whatever you say it is
        Dm
Split infinitive


[Chorus 2]

    A            Fmaj7       Dsus2   A/C#
And in your life ----- there comes a darkness
          Fmaj7     G6         Dsus2   A/C#
There’s a spacecraft, blocking out the sky
    Fmaj7           Dsus2    A/C#
And there's nowhere ----- to hide
    Fmaj7          G6        Dsus2      A/C#
You run to the back, and you cover your ears
             Fmaj7         Dsus2             A/C#
But it's the loudest sound ----- you've ever heard
Fmaj7   A#      E
In your darkest hour


[Outro]

E5    Esus4 Em    Esus4 Em    Esus4 B5  (x10)
E5


-----------------------------------------------------------------------------------
                           Track 4 – Desert Island Disk
-----------------------------------------------------------------------------------


                   Riff                     or     Chord Strumming
     G                     Fsus2                      G   Fsus2
e|-------1h3----------------------------|         e|-------------|
B|-------x----1h3p0--1-----1----1----1--|         B|---------1---|
G|---0---0----0------0-----0----0----0--|         G|---0-----0---|
D|---0---------------------3----3----3--|         D|---0-----3---|
A|---2----------------------------------|         A|---2-----3---|
E|---3----------------------------------|         E|---3---------|

h = hammer-on
p = pull-off


[Intro]
G  Fsus2   x6


[Verse 1]
G        Fsus2      G   Fsus2
Now as I go upon my way
          G  Fsus2
So let me go 
        G   Fsus2
Upon my way
          G     Fsus2
Born of a light
          G     Fsus2
Born of a light


[Verse 2]
    G            Fsus2         G     Fsus2
The wind rushing round my open heart
          G    Fsus2
An open ravine
             G     Fsus2
In my spirit white
         G    Fsus2
Totally alive
             G     Fsus2
In my spirit light

G  Fsus2  


[Verse 3]
G          Fsus2    G   Fsus2
Through an open doorway
         G      Fsus2
Across a street
           G    Fsus2
To another life
    G        Fsus2    G    Fsus2
And catching my reflection
        G   Fsus2
In a window
               G     Fsus2
Switching on a light
             G    Fsus2
One I didn’t know
         G    Fsus2
Totally alive
          G      Fsus2
Totally released


[Bridge]

     Gm  Gsus4
e|-------------|
B|-------------|
G|---3-----5---|
D|---5-----5---|
A|---5-----5---|
E|---3---------|

Gm  Gsus4               Gm       Gsus4
Wak-ing, waking up from shutdown
                Gm       Gsus4
From a thousand years of sleep
     G    Fsus2           G   
Yeah you, you know what I mean
Fsus2           G      
You know what I mean
Fsus2           G      
You know what I mean
Fsus2                   G      
Standing on the edge of you
Fsus2           G      
You know what I mean
Fsus2           G      
You know what I mean
Fsus2           G      Fsus2
You know what I mean


[Outro]
                   Gm   Gsus4
Different types of love
                   Gm   Gsus4
Different types of love
                   Gm   Gsus4
Different types of love

   Dsus4  Gsus4
e|---3---------|
B|---3-----1---|
G|---2-----0---|
D|---0-----1---|
A|-------------|
E|-------------|

         Dsus4  Gsus4
Are possible
         Dsus4  Gsus4
Are possible
         Dsus4  Gsus4
Are possible
         G   Fsus2
Are possible
G   Fsus2
G   Fsus2
G   Fsus2  G


-----------------------------------------------------------------------------------
                                 Track 5 – Ful Stop
-----------------------------------------------------------------------------------


Capo 2nd fret


             Main Riff:                Other Chords:

    E/G#     A5                        A5/F   A#maj7
e|---------------------------------|------------------|
B|---------------------------------|------------3-----|
G|-----------2----2----2----2----2-|-----2------2-----|
D|--2--2--2--2----2----2----2----2-|-----2------3-----|
A|--x--x--x--0----0----0----0----0-|-----x------1-----|
E|--4--4--4------------------------|-----1------------|


[Intro]

E/G# A5 


[Verse 1]

E/G# A5              E/G#   A5             E/G# A5    E/G# A5    E/G# A5    E/G# A5 
       You really messed up everything
E/G# A5              E/G#   A5             E/G# A5    E/G# A5   
       You really messed up everything
E/G# A5                    E/G# A5         E/G# A5    E/G# A5   
       If you could take it all back again
E/G# A5                 E/G#   A5          E/G# A5    E/G# A5   
       Strike up what's in the box
E/G# A5                E/G#    A5          E/G# A5    E/G# A5   
       Why should I be good if you're not?
E/G# A5          E/G# A5                   E/G# A5    E/G# A5   
       This is a foul tasting medicine
E/G# A5       E/G#    A5                   E/G# A5    E/G# A5   
       A foul tasting medicine
E/G# A5                 E/G# A5            E/G# A5    E/G# A5   
       To be trapped in your full stop


[Chorus]

A5

A5
Truth will mess you up, truth will mess you up
A5
Truth will mess you up, truth will mess you up
A5/F
Truth will mess you up, truth will mess you up
A5/F
Truth will mess you up, truth will mess you up
A5
Truth will mess you up, truth will mess you up
          (all the good times)
A5
Truth will mess you up, truth will mess you up
          (all the good times)
A5
Truth will mess you up, truth will mess you up
          (all the good times)
A5
Truth will mess you up, truth will mess you up
          (all the good times)
A5
Truth will mess you up, truth will mess you up
          (all the good times)
A5
Truth will mess you up, truth will mess you up
          (all the good times)
A5
Truth will mess you up, truth will mess you up
          (all the good times)
A5
Truth will mess you up, truth will mess you up
          (all the good times)


[Outro]

E/G# A5 
E/G# A5 
E/G# A5 

E/G#    A#maj7
Take me back again
E/G#    A5
Take me back
E/G#    A#maj7
Take me back again
E/G#    A5 

E/G#    A#maj7
Ahhh ahhh ahhh
E/G#    A5 
Ahhh ahhh ahhh
E/G#    A#maj7
Ahhh ahhh ahhh
E/G#    A5 
Ahhh ahhh ahhh


-----------------------------------------------------------------------------------
                                Track 6 – Glass Eyes
-----------------------------------------------------------------------------------


Intro + Verse 1     Verse 2        Outro
---------------     ----------     ----------
Bm      x24432      Am  x02210     Bb  x13331
Emadd9  022002      Em  02200x     Bm  x24432
G       320003      D5  xx023x     Em  02200x
Em/A    x02000      C   x3201x     G   32003x
Em      02200x


Capo 1st fret


[Intro]

Bm      Bm  
Emadd9  Emadd9
G       G
Em/A    Em
Bm


[Verse 1]

Bm                                      
Hey it's me, I just got off the train
  Bm                                          Emadd9
A frightening place, their faces are concrete grey

And I'm wondering should I turn around
Emadd9                                 G
Buy another ticket, panic is coming on strong
                              G
So cold, from the inside out, no great job, no message coming in
     Em/A
And you're so small
                     Em
Glassy eyed light of day
                     Bm     Bm
Glassy eyed light of day


[Verse 2]

    Am
The path trails off, and heads down a mountain
Em                                          D5                    C                   
Through the dry bush, I don't know where it leads, I don't really care
        Am
And the path trails off, and heads down a mountain
Em                                          D5                    C
Through the dry bush, I don't know where it leads, I don't really care


[Outro]

Bb   Bb 

Bm             Em        G
   I feel this love turn cold
Bm             Em        G
   I feel this love turn cold
Bm   Bm


-----------------------------------------------------------------------------------
                                 Track 7 – Identikit
-----------------------------------------------------------------------------------

Coming soon...

-----------------------------------------------------------------------------------
                                Track 8 – The Numbers
-----------------------------------------------------------------------------------


Verse            Chorus            Bridge          Outro  
------------     -------------     -----------     --------------
Am7   x0201x     G      32000x     C#5  x466xx     E7sus4  02020x
Em/A  xx200x     D      xx023x     D#5  x688xx     A       x0222x
D     xx023x     Fmaj7  xx3210     F    13321x
A     x0222x                       E    02210x
                                   G    32000x
                                   D    x0023x

Capo 3rd fret


[Intro]

    Am7            Em/A  D   A             Occasional riff
e|--------------------------------------|-----------------------|
B|--------1--1-x---0-x---3-----2-----2--|-----------------------|
G|--------0--0-x---0-x---2-----2-----2--|--0--2--4--2--0--2-----|
D|--------2--2-x---2-x---0-----2-----2--|--------------------2--|  x5
A|--0-0----------------------0-----0----|-----------------------|
E|--------------------------------------|-----------------------|


[Verse 1]

Am7         Em/A   D       A
   Holds us like a phantom
Am7             Em/A   D      A
   The touch is like a breeze
Am7              Em/A D        A
   It shines its understanding
Am7        Em/A D       A
   See the moon smiling
Am7  Em/A  D  A  


[Verse 2]

Am7     Em/A   D        A  
   Open on all channels
Am7      Em/A D     A  
   Ready to receive
Am7              Em/A   D     A  
   And we're not at the mercy
Am7              Em/A    D      A  
   Of your shimmerers or spells
Am7           Em/A    D      A  
   Your shimmerers or spells
Am7  Em/A  D  A  
Am7  Em/A  D  A  


[Verse 3]

Am7       Em/A   D     A  
   We are of the earth
Am7         Em/A  D    A  
   To her we do return
Am7           Em/A D    A  
   The future is inside us
Am7       Em/A        D    A  
   It's not somewhere else
Am7       Em/A        D    A  
   It's not somewhere else
Am7       Em/A        G   D        Am7  Em/A  D  A
   It's not somewhere else
                     (One day at a time)


[Chorus 1]

Am7  Em/A  D  A
G   D        Fmaj7
One day at a time


[Bridge]

C#5 D#5   F    E    G    D


[Verse 4]

Am7         Em/A    D      A  
   We call upon the people
Am7       Em/A      D     A  
   People have this power
Am7            Em/A    D    A  
   The numbers don't decide
Am7            Em/A D   A  
   Your system is a lie
Am7          Em/A    D   A  
   The river running dry
Am7          Em/A D     A  
   The wings of a butterfly
Am7  Em/A  D  A  


[Verse 5]

Am7            Em/A     D             A  
   And you may pour us away like soup
Am7           Em/A      D           A  
   Like we're pretty broken flowers
Am7           Em/A         D    A  
   We'll take back what is ours
Am7     Em/A         G    D
   Take back what is ours


[Chorus 2]

C#5 D#5   F    E
G   D        Fmaj7
One day at a time


[Outro]

E7sus4  A


-----------------------------------------------------------------------------------
                               Track 9 – Present Tense
-----------------------------------------------------------------------------------


Intro + Bridge     Verse               Chorus
--------------     -------------       ----------
Em   022000        Em     022000       Em  022000
Am   x02210        Am     x02210       D   xx0232
B    x24442        C      x32010       G   320033
G#m  46644x        Bm     x2443x       C   x32010
G    35543x        Dsus2  xx0230       A   x02220
C    x32010        Asus4  x02230
F    13321x
Dm   xx0231


Capo 4th fret


[Intro]
Em   Am   B
G#m  G    C
F    Dm   G

Em   Am   B
G#m  G    C
F    Dm   G


[Verse 1]

Em    Am
Em    Am
Em      Am   Em     Am
   This dance, this dance
 C                     Bm     C          Bm 
(This dance) is like a weapon, is like a weapon
Em           Am   Em          Am
   Of self defense, of self defense
C              Bm      C            Bm   
   Against the present, against the present
C          Dsus2
   Present tense


[Verse 2]

Em             Am   Em          Am
   I won't get heavy, don't get heavy
C          Bm        C        Asus4 
   Keep it light and, keep it moving
C       Bm    C   Dsus2
   I am doing, no harm


[Verse 3]

Em       Am   Em      Am
   As my world, comes crashing down
C      Bm      C         Asus4 
   I'm dancing, freaking out
C        Dsus2     Em
   Deaf, dumb, and blind


[Chorus 1]

Em   D G
C    A 
Em   D 
           G
In you I'm lost
           C     A
In you I'm lost


[Bridge]

Em                    Am
   I won't turn around, when the penny drops
B                   G#m
   I won't stop now, I won't slack off
G                   C
   Or all this love, will be in vain
F  Dm  G  Dm


Em                  Am
   Stop from falling, down a mine
B                        G#m
   It's no one's business, but mine
G                     C
   That all this love, could be in vain
F  Dm  G


[Chorus 2]

Em   D 
           G
In you I'm lost
           C     A
In you I'm lost
Em   D 
           G
In you I'm lost
           C     A
In you I'm lost


[Outro]

Em    Am
Em    Am
Em    Am
Em    Am    Em


-----------------------------------------------------------------------------------
     Track 10 – Tinker Tailor Soldier Sailor Rich Man Poor Man Beggar Man Thief
-----------------------------------------------------------------------------------


Chords
----------
C   x32010
A   x0222x
B   x2444x
D   xx0232
G6  32000x


Capo 4th fret


[Intro]

C    C A    C A    B C    D A
C A    B C G6   C D       C D
A    C A    B C    D A 


[Verse 1]

              C A         B C       D     A
All the holes --- at once --- are coming alive, set free
C A        B C          D   A
    Out of sight and out of mind, and lonely
C A      B    C     D  A
    And their prey
B  C  G6


[Chorus 1]

    C        D          C        D         A  B   C  G6 
The ones you light your fires to keep away
C        D    C     D       A  B    C   G6
Crawling out upon expending
    C       D       C     D   
And all you have to do is say


[Bridge]

A
   Yeah
C     C A      B C    D A
C A   B C G6   C D    A 


[Verse 2]

              C A         B C     D  A
All the birds --- stay up --- in the trees
             C A           B C  D  A
All the fish --- swim down --- too deep, and lonely
C A     B     C     D  A
    And their prey
           C A            B C G6              C  A   C  A
Honey came --- come to me --- before it's too late
A  B  C  G6


[Chorus 2]

    C       D          C        D         A  B    C   G6
The one you watch your fires to keep away
   C        D    C     D       A  B    C   G6
Is crawling out upon expelling
C       D       C     D    A
All you have to do is say, yeah


--------------------------------------------------------------------------------------------
                                Track 11 – True Love Waits
--------------------------------------------------------------------------------------------


Verse              Chorus
--------------     -------------
Cmaj7   x3200x     C      x3201x 
Am7     x0201x     Csus4  x3301x   
G#maj7  4355xx     G/B    x2x00x
                   Am7    x0201x
                   C/G    33201x
                
[Intro]

Cmaj7


[Verse 1]

Cmaj7
     I'll drown my beliefs
Am7                   G#maj7
     To have your babies
Cmaj7
     I'll dress like your niece
Am7                          G#maj7
     And wash your swollen feet


[Chorus 1] 

C    Csus4 C
Just don't leave
G/B   Am7   
Don't leave
C/G


[Verse 2]

Cmaj7
     I'm not living
Am7                     G#maj7
     I'm just killing time
Cmaj7
     Your tiny hands
Am7                       G#maj7
     Your crazy kitten smile


[Chorus 2] 

C    Csus4 C
Just don't leave
G/B   Am7   
Don't leave
C/G


[Verse 3]

Cmaj7
    And true love waits
Am7                G#maj7
    In haunted attics
Cmaj7
    And true love lives
Am7                      G#maj7
    On lollipops and crisps


[Chorus 3] 

C    Csus4 C
Just don't leave
G/B   Am7   
Don't leave
C/G   Cmaj7


Fingerpicking: 

Verse
   Cmaj7                      Am7                        G#maj7                         
e|--------------------------|--------------------------|--------------------------|
B|--------------------------|--------------------------|--------------------------|
G|---------4--------------4-|---------5--------------5-|---------5--------------5-|
D|----5-----------5---------|----5-----------5---------|----5-----------5---------|
A|-3----3-----3-------3-----|------3-------------3-----|------3-------------3-----|
E|--------------------------|-5----------5-------------|-4----------4-------------|

Chorus
    C               Csus4           G/B             Am7             C/G
e|---------------|---------------|---------------|---------------|----------------|
B|---------------|---------------|---------------|---------------|----------------|
G|------------5--|------------5--|------------4--|------------5--|------------5---|
D|-----5---------|-----3---------|-----5---------|-----5---------|-----5----------|
A|--3-----3------|--3-----3------|--2-----2------|--------3------|--------3-------|
E|---------------|---------------|---------------|--5------------|--3-------------|

            
            
Suggest correction
Creating personal tab
Creating personal tab
You can edit any tab online and save it as your Personal.

You can edit, replace or remove any tab part or add personal notes – all changes will be seen only by you.

Personal tabs can be accessed anytime from any device, even offline.
Learn more »
comments
print report bad tab
4 comments total. Showing first comments.
+1 reply
angrysshark 10 Dec 10, 2016 03:34 PM

Man this is so good, it's perfect, nice job!

+1 reply
HeadLoopStation 10 Jan 20, 2017 06:07 PM

When will you add identikit?

0 reply
jamesythe3rd 10 Apr 07, 2017 01:12 PM

👍

guest
You may want to rate the tab now too:
select rating
Wanna post a correction for this tab? Suggest correction