Oops, an error
Loading. Please wait.

A Moon Shaped Pool album tab

7,813 views 78 this week
5 commentsread comments
1 2 3 4 5
x 10
add to favorites
×
Save as Personal and add changes to this tab that will be seen only by you. Learn more ›
×
You can save this tab as Personal to edit and correct it or add notes. All changes will be seen only by you. Learn more »
launch autoscroll
font size
0
reset
how to read this tab
guitar tuner
edit
Autoscroll
slow
fast
+/-
esc
set tempo
stop
Author
.----------------------------------------.
|     Radiohead – A Moon Shaped Pool     |
'----------------------------------------'

Radiohead’s 9th studio  album
Release date: May 8, 2016


-- Track listing –

1.  Burn the Witch
2.  Daydreaming
3.  Decks Dark
4.  Desert Island Disk
5.  Ful Stop
6.  Glass Eyes
7.  Identikit
8.  The Numbers
9.  Present Tense
10. Tinker Tailor Soldier Sailor Rich Man Poor Man Beggar Man Thief
11. True Love Waits


--------------------------------------------------------------------------------------------------------------
                                          Track 1 – Burn the Witch 
--------------------------------------------------------------------------------------------------------------


Intro + Verse     Chorus + Outro
-------------     --------------------
F#     x44322     F#  x44322
Eadd9  022102     D   xx023x or x5770x
E      022100     E   02210x or x7990x
C#     x4666x     A   x022xx or 57765x
B      x2444x     B   x2444x or 79987x
D      x0023x     


[Intro]

    F#                                  Eadd9             E
e|--2-2-2-2-2-2-2-2-|-2-2-2-2-2-2-2-2-|-2-2-2-2-2-2-2-2-|-0-0-0-0-0-0-0-0--|
B|--2-2-2-2-2-2-2-2-|-2-2-2-2-2-2-2-2-|-0-0-0-0-0-0-0-0-|-0-0-0-0-0-0-0-0--|
G|--3-3-3-3-3-3-3-3-|-3-3-3-3-3-3-3-3-|-1-1-1-1-1-1-1-1-|-1-1-1-1-1-1-1-1--|
D|--4-4-4-4-4-4-4-4-|-4-4-4-4-4-4-4-4-|-2-2-2-2-2-2-2-2-|-2-2-2-2-2-2-2-2--| x4
A|--4-4-4-4-4-4-4-4-|-4-4-4-4-4-4-4-4-|-2-2-2-2-2-2-2-2-|-2-2-2-2-2-2-2-2--|
E|------------------|-----------------|-0-0-0-0-0-0-0-0-|-0-0-0-0-0-0-0-0--|


[Verse 1]

F#             Eadd9   E
   Stay in the shadows
F#              Eadd9   E
   Cheer at the gallows
F#           Eadd9    E
   This is a round up
F#           Eadd9      E
   This is a low flying panic attack
C#                      B
   Sing the song on the jukebox that goes


[Chorus 1]

F#   D E          A B
Bu-u-u-urn the wi-i-itch
F#   D E          A B
Bu-u-u-urn the wi-i-itch
F#       D  E             A B
We kno-o-ow where you live


[Verse 2]

F#                Eadd9  E
   Red crosses on wooden doors
F#        Eadd9     E
   If you float you burn
F#                   Eadd9   E
   Loose talk around tables
D          E
   Abandon all reason


F#           Eadd9  E
   Avoid all eye contact
F#    Eadd9  E
   Do not  react
F#           Eadd9  E
   Shoot the messengers
F#           Eadd9      E
   This is a low flying panic attack
C#                  B
   Sing the song of sixpence that goes


[Chorus 2]

F#   D E          A B
Bu-u-u-urn the wi-i-itch
F#   D E          A B
Bu-u-u-urn the wi-i-itch
F#       D  E             A B
We kno-o-ow where you live
F#       D  E             A B
We kno-o-ow where you live


[Outro]

D  E
D  E
F#


--------------------------------------------------------------------------------------------------------------
                                           Track 2 – Daydreaming 
--------------------------------------------------------------------------------------------------------------


[Intro]

Piano line 1:
e|-5-----5-----5-----5-----|-3-----3-----3-----3-----|-3-----3-----3-----3-----|-5-----5-----5-----5-----|
B|-----5-----5-----5-----5-|-----3-----3-----3-----3-|-----3-----3-----3-----3-|-----5-----5-----5-----5-|
G|---7-----7-----7-----7---|---5-----5-----5-----5---|---5-----5-----5-----5---|---7-----7-----7-----7---|
D|-------------------------|-------------------------|-------------------------|-------------------------|
A|-------------------------|-------------------------|-------------------------|-------------------------|
E|-------------------------|-------------------------|-------------------------|-------------------------|

Bass line 1:
e|-------------------------|-------------------------|-------------------------|-------------------------|
B|-------------------------|-------------------------|-------------------------|-------------------------|
G|-------------------------|-------------------------|-------------------------|-------------------------|
D|-------------------------|-------------------------|-------------------------|-------------------------|
A|-------------------------|-------------------------|-------------------------|-------------------------|
E|-5--5--5--5--5--5--5--5--|-1--1--1--1--1--1--1--1--|-0--0--0--0--0--0--0--0--|-1--1--1--1--1--1--1--1--|


Piano line 2:
e|-5-----5-----5-----5-----|-3-----3-----3-----3-----|-3-----3-----3-----3-----|-1-----1-----1-----1-----|
B|-----5-----5-----5-----5-|-----3-----3-----3-----3-|-----3-----3-----3-----3-|-----1-----1-----1-----1-|
G|---7-----7-----7-----7---|---5-----5-----5-----5---|---5-----5-----5-----5---|---3-----3-----3-----3---|
D|-------------------------|-------------------------|-------------------------|-------------------------|
A|-------------------------|-------------------------|-------------------------|-------------------------|
E|-------------------------|-------------------------|-------------------------|-------------------------|

Bass line 2:
e|-------------------------|-------------------------|-------------------------|-------------------------|
B|-------------------------|-------------------------|-------------------------|-------------------------|
G|-------------------------|-------------------------|-------------------------|-------------------------|
D|-------------------------|-------------------------|-------------------------|-------------------------|
A|-------------------------|-------------------------|-------------------------|-5--5--5--5--5--5--5--5--|
E|-5--5--5--5--5--5--5--5--|-1--1--1--1--1--1--1--1--|-0--0--0--0--0--0--0--0--|-------------------------|


Piano line 3:
e|-1-----1-----3-----3-----|-1-----1-----3-----0-1-3-|
B|-----1-----1-----1-----1-|-----1-----1---1-3-------|
G|---4-----4-----4-----4---|---4-----4---------------|
D|-------------------------|-------------------------|
A|-------------------------|-------------------------|
E|-------------------------|-------------------------|

Bass line 3:
e|-------------------------|-------------------------|
B|-------------------------|-------------------------|
G|-------------------------|-------------------------|
D|-------------------------|-------------------------|
A|-------------------------|-------------------------|
E|-3--3--3--3--3--3--3--3--|-3--3--3--3--3--3--------|


[Verse 1]

e|-5-----5-----5-----5-----|-3-----3-----3-----3-----|-3-----3-----3-----3-----|-5-----5-----5-----5-----|
B|-----5-----5-----5-----5-|-----3-----3-----3-----3-|-----3-----3-----3-----3-|-----5-----5-----5-----5-|
G|---7-----7-----7-----7---|---5-----5-----5-----5---|---5-----5-----5-----5---|---7-----7-----7-----7---|
D|-------------------------|-------------------------|-------------------------|-------------------------|
A|-------------------------|-------------------------|-------------------------|-------------------------|
E|-------------------------|-------------------------|-------------------------|-------------------------|
   Dreamers,            they never learn,         they never                     learn


e|-5-----5-----5-----5-----|-3-----3-----3-----3-----|-3-----3-----3-----3-----|-5-----5-----5-----5-----|
B|-----5-----5-----5-----5-|-----3-----3-----3-----3-|-----3-----3-----3-----3-|-----5-----5-----5-----5-|
G|---7-----7-----7-----7---|---5-----5-----5-----5---|---5-----5-----5-----5---|---7-----7-----7-----7---|
D|-------------------------|-------------------------|-------------------------|-------------------------|
A|-------------------------|-------------------------|-------------------------|-------------------------|
E|-------------------------|-------------------------|-------------------------|-------------------------|
   Beyond the point,      of no return,             of no re-                    -turn


e|-5-----5-----5-----5-----|-3-----3-----3-----3-----|-3-----3-----3-----3-----|
B|-----5-----5-----5-----5-|-----3-----3-----3-----3-|-----3-----3-----3-----3-|
G|---7-----7-----7-----7---|---5-----5-----5-----5---|---5-----5-----5-----5---|
D|-------------------------|-------------------------|-------------------------|
A|-------------------------|-------------------------|-------------------------|
E|-------------------------|-------------------------|-------------------------|
And it's too late,       the damage is done,       the damage               


[Interlude]

e|-5-----------5-----------|-5-----------5-----------|-5-----------5-----------|-5-----------5-----------|
B|-------7-5-----7-----5-7-|-------7-5-----7-----5-7-|-------6-5-----6-----5-6-|-------6-5-----6-----5-6-|
G|---6-7-----6-----7-6-----|---6-7-----6-----7-6-----|---5-7-----5-----7-5-----|---5-7-----5-----7-5-----|
D|-------------------------|-------------------------|-------------------------|-------------------------|
A|-------------------------|-------------------------|-------------------------|-------------------------|
E|-------------------------|-------------------------|-------------------------|-------------------------|
is done

e|-5-----------5-----------|-5-----------5-----------|-5-----------5-----------|-5-----------5-----------|
B|-------7-5-----7-----5-7-|-------6-5-----6-----5-6-|-------6-5-----6-----5-6-|-------6-5-----6-----5-6-|
G|---4-7-----4-----7-4-----|-----7-----------7-------|---5-7-----5-----7-5-----|---5-7-----5-----7-5-----|
D|-------------------------|---8-------8-------8-----|-------------------------|-------------------------|
A|-------------------------|-------------------------|-------------------------|-------------------------|
E|-------------------------|-------------------------|-------------------------|-------------------------|


[Verse 2]

e|-5-----5-----5-----5-----|-3-----3-----3-----3-----|-3-----3-----3-----3-----|-5-----5-----5-----5-----|
B|-----5-----5-----5-----5-|-----3-----3-----3-----3-|-----3-----3-----3-----3-|-----5-----5-----5-----5-|
G|---7-----7-----7-----7---|---5-----5-----5-----5---|---5-----5-----5-----5---|---7-----7-----7-----7---|
D|-------------------------|-------------------------|-------------------------|-------------------------|
A|-------------------------|-------------------------|-------------------------|-------------------------|
E|-------------------------|-------------------------|-------------------------|-------------------------|
   This goes,              beyond me,                beyond you

e|-5-----5-----5-----5-----|-3-----3-----3-----3-----|-3-----3-----3-----3-----|-5-----5-----5-----5-----|
B|-----5-----5-----5-----5-|-----3-----3-----3-----3-|-----3-----3-----3-----3-|-----5-----5-----5-----5-|
G|---7-----7-----7-----7---|---5-----5-----5-----5---|---5-----5-----5-----5---|---7-----7-----7-----7---|
D|-------------------------|-------------------------|-------------------------|-------------------------|
A|-------------------------|-------------------------|-------------------------|-------------------------|
E|-------------------------|-------------------------|-------------------------|-------------------------|
The white room,           by window,         where the sun goes                  through

e|-5-----5-----5-----5-----|-3-----3-----3-----3-----|-3-----3-----3-----3-----|
B|-----5-----5-----5-----5-|-----3-----3-----3-----3-|-----3-----3-----3-----3-|
G|---7-----7-----7-----7---|---5-----5-----5-----5---|---5-----5-----5-----5---|
D|-------------------------|-------------------------|-------------------------|
A|-------------------------|-------------------------|-------------------------|
E|-------------------------|-------------------------|-------------------------|
We are                  just happy to serve,      just happy to serve


[Interlude]

e|-5-----------5-----------|-5-----------5-----------|-5-----------5-----------|-5-----------5-----------|
B|-------7-5-----7-----5-7-|-------7-5-----7-----5-7-|-------6-5-----6-----5-6-|-------6-5-----6-----5-6-|
G|---6-7-----6-----7-6-----|---6-7-----6-----7-6-----|---5-7-----5-----7-5-----|---5-7-----5-----7-5-----|
D|-------------------------|-------------------------|-------------------------|-------------------------|
A|-------------------------|-------------------------|-------------------------|-------------------------|
E|-------------------------|-------------------------|-------------------------|-------------------------|
   you

e|-5-----------5-----------|-5-----------5-----------|-5-----------5-----------|-5-----------5-----------|
B|-------7-5-----7-----5-7-|-------6-5-----6-----5-6-|-------6-5-----6-----5-6-|-------6-5-----6-----5-6-|
G|---4-7-----4-----7-4-----|-----7-----------7-------|---5-7-----5-----7-5-----|---5-7-----5-----7-5-----|
D|-------------------------|---8-------8-------8-----|-------------------------|-------------------------|
A|-------------------------|-------------------------|-------------------------|-------------------------|
E|-------------------------|-------------------------|-------------------------|-------------------------|


--------------------------------------------------------------------------------------------------------------
                                            Track 3 – Decks Dark
--------------------------------------------------------------------------------------------------------------

Capo 5th fret


[Verse 1]

     A       Fmaj7   Dsus2   A/C#                       
e|---0-------0-------0-------0---------|
B|-----2-------1-------3-------2-------|
G|-------2-------2-------2-------2-----|
D|---------2-------3-------0-----------|
A|---------------------------------4---|
E|-------------------------------------|  

    A            Fmaj7       Dsus2   A/C#
And in your life ----- there comes a darkness


     Fmaj7   G6      Dsus2   A/C#                       
e|---0-------0-------0-------0---------|
B|-----1-------3-------3-------2-------|
G|-------2-------0-------2-------2-----|
D|---------3-------0-------0-----------|
A|---------------------------------4---|
E|-------------------------------------|

          Fmaj7     G6         Dsus2   A/C#
There’s a spacecraft, blocking out the sky

     Fmaj7    Dsus2   A/C#                       
e|---0--------0-------0---------|
B|-----1--------3-------2-------|
G|-------2--------2-------2-----|
D|---------3--------0-----------|
A|--------------------------4---|
E|------------------------------|

    Fmaj7           Dsus2    A/C#
And there's nowhere ----- to hide


     Fmaj7   G6      Dsus2   A/C#                       
e|---0-------0-------0-------0---------|
B|-----1-------3-------3-------2-------|
G|-------2-------0-------2-------2-----|
D|---------3-------0-------0-----------|
A|---------------------------------4---|
E|-------------------------------------|

    Fmaj7          G6        Dsus2      A/C#
You run to the back, and you cover your ears


     Fmaj7    Dsus2   A/C#                       
e|---0--------0-------0---------|
B|-----1--------3-------2-------|
G|-------2--------2-------2-----|
D|---------3--------0-----------|
A|--------------------------4---|
E|------------------------------|

             Fmaj7         Dsus2             A/C#
But it's the loudest sound ----- you've ever heard


     Fmaj7   G6      Dsus2   A/C#                       
e|---0-------0-------0-------0---------|
B|-----1-------3-------3-------2-------|
G|-------2-------0-------2-------2-----|
D|---------3-------0-------0-----------|
A|---------------------------------4---|
E|-------------------------------------|

Fmaj7         G6    Dsus2      A/C#
Are we trapped, rag doll cloth people


     Fmaj7    Dsus2   A/C#                       
e|---0--------0-------0---------|
B|-----1--------3-------2-------|
G|-------2--------2-------2-----|
D|---------3--------0-----------|
A|--------------------------4---|
E|------------------------------|

       Fmaj7    Dsus2      A/C#
We are helpless ----- to resist

       F        A#       E                       
e|------------------------------|
B|-----1--------3---------------|
G|-----2--------3--------1------|
D|-----3--------3--------2------|
A|-----3--------1--------2------|
E|-----------------------0------|

F       A#      E
In your darkest hour


[Chorus]

     E       C/G       F        Dm               
e|-------------------------------------|
B|------------------------------3------|
G|---1--------0--------2--------2------|
D|---2--------2--------3--------0------|
A|---2--------3--------0--------0------|
E|---0--------3--------1---------------|

E  C/G  F  Dm
E  C/G  F  Dm

                  E                             C/G
But it was just a laugh, just a lie, just a laugh, just a lie
             F 
Even at this angle
          Dm
And so we crumble
              E                                       C/G    
Still turning heads, you know where it's at, this dread still covers us
             F
You gotta be kidding me
                Dm
The grass grows over me
                 E                                      C/G
Your face in the glass, in the glass, it was just a laugh, just a laugh
                  F
It's whatever you say it is
        Dm
Split infinitive


[Verse 2]

     A       Fmaj7   Dsus2   A/C#                       
e|---0-------0-------0-------0---------|
B|-----2-------1-------3-------2-------|
G|-------2-------2-------2-------2-----|
D|---------2-------3-------0-----------|
A|---------------------------------4---|
E|-------------------------------------|  

    A            Fmaj7       Dsus2   A/C#
And in your life ----- there comes a darkness


     Fmaj7   G6      Dsus2   A/C#                       
e|---0-------0-------0-------0---------|
B|-----1-------3-------3-------2-------|
G|-------2-------0-------2-------2-----|
D|---------3-------0-------0-----------|
A|---------------------------------4---|
E|-------------------------------------|

          Fmaj7     G6         Dsus2   A/C#
There’s a spacecraft, blocking out the sky

     Fmaj7    Dsus2   A/C#                       
e|---0--------0-------0---------|
B|-----1--------3-------2-------|
G|-------2--------2-------2-----|
D|---------3--------0-----------|
A|--------------------------4---|
E|------------------------------|

    Fmaj7           Dsus2    A/C#
And there's nowhere ----- to hide


     Fmaj7   G6      Dsus2   A/C#                       
e|---0-------0-------0-------0---------|
B|-----1-------3-------3-------2-------|
G|-------2-------0-------2-------2-----|
D|---------3-------0-------0-----------|
A|---------------------------------4---|
E|-------------------------------------|

    Fmaj7          G6        Dsus2      A/C#
You run to the back, and you cover your ears


     Fmaj7    Dsus2   A/C#                       
e|---0--------0-------0---------|
B|-----1--------3-------2-------|
G|-------2--------2-------2-----|
D|---------3--------0-----------|
A|--------------------------4---|
E|------------------------------|

             Fmaj7         Dsus2             A/C#
But it's the loudest sound ----- you've ever heard


       F        A#       E                       
e|------------------------------|
B|-----1--------3---------------|
G|-----2--------3--------1------|
D|-----3--------3--------2------|
A|-----3--------1--------2------|
E|-----------------------0------|

F       A#      E
In your darkest hour


[Outro]

     E5
e|--------------------------------------|
B|--------------------------------------|
G|----------2-0---x--2-0---x--2-4---x---|
D|---2---x--2-2---x--2-2---x--2-4---x---| x10 (end on E5)
A|---2---x----------------------2---x---|
E|---0---x--0-0---x--0-0---x--0---------|


--------------------------------------------------------------------------------------------------------------
                                          Track 4 – Desert Island Disk
--------------------------------------------------------------------------------------------------------------

Tuning: DADGAD  
Tuning instruction video: https://youtu.be/T-EX4ZjDZhs

h = hammer-on
p = pull-off


Capo:   5th fret


[Intro]

d|--5-----4-----2--------0-------2h3p2p0----------0---------------------------------|
a|-----------------0--3---------------------0--3-------------------------------0----|
G|-----0-----0--------2-----2------------------2----2----2p0----0h2-------2---------|
D|--------------------------0-----------------------0--------4-------0----0-------0-|
A|--------------------------0-----------------------0-------------------------------|
D|--0-----0-----0-----0--------0---------0-----0-------0--------0------0-----0------|

d|------------------------------------------------0-------------------------0-----0-|
a|-----1-1--1-1-0------0-----------------1-1--1-1-0---------0---------------------0-|
G|-----0-0--0-0-2------------2p0---------0-0--0-0-2---------------2p0----0----------|
D|---2/3-2--2-2-0----0-----------4--0--2/3-2--2-2---0----0------------4-------------|
A|-----0-0--0-0-0------------------------0-0--0-0-----------------------------------|
D|-----0-0--0-0-0--0------0--------------0-0--0-0------0-------0---------------0----|


[Verse 1]

                 Riff 1 = R1                               Riff 2 = R2
d|------0----------------------------------|------0---------------------------------|
a|------0----------------------------------|------0---------------------------------|
G|------5h7----------0-----0------0--0-----|------5h7----------0-----0---0----------|
D|------0---5h7p0----0-----0---0--2--0-----|------0---5h7p0----0-----0---0----------|
A|--0-------0--------5-----2---3--------0--|--0-------0--------5-----3---3p2p0--0---|
D|--0-------0-----0--0-----0------------0--|--0-------0-----0--0-----0---0------0---|


                 Riff 3 = R3                               Riff 4 = R4
d|------0----------------------------------|------0---------------------------------|
a|------0----------------------------------|------0---------------------------------|
G|------5h7----------0-----0----0----------|------5h7----------0-----0--0--0--------|
D|------0---5h7p0----0-----0----0----------|------0---5h7p0----0-----0--0--2p0-0----|
A|--0-------0--------5-----3----3----3--0--|--0-------0--------5-----2--3--------0--|
D|--0-------0-----0--0-----0----0----0--0--|--0-------0-----0--0-----0--0--------0--|


R1  R2  
R3  R4
R3  R3


R3
Now as I go upon my way
R3
   So let me go    
R3
   Upon my way
R1
   Born of a light
R1
   Born of a light
R3


[Verse 2]

R3
   The wind rushing round my open heart
R3
   An open ravine
R3
   In my spirit white
R1
   Totally alive
R1
   In my spirit light
R3


[Verse 3]

R3
   Through an open doorway
R3
   Across a street
R3
   To another life
R3
   And catching my reflection
R3
   In a window
R3
   Switching on a light
R3
   One I didn’t know
R1
   Totally alive
R1
   Totally released
R1


[Bridge]

              Riff 5 = R5           
d|------0------------------------------|
a|------0------------------------------|
G|------3h5----------0-----0---0-------|
D|------0---3h5p0----0-----0---0-------| x3
A|--0---0---0--------3-----1---1p0--0--|
D|--0---0---0-----0--0-----0---0----0--|

R5
   Waking, waking up from shutdown
R5
   From a thousand years of sleep
R5
   Yeah you, you know what I mean


R3 
   You know what I mean
R3
   You know what I mean
R3
   Standing on the edge of you
R3
   You know what I mean
R3
   You know what I mean
R3
   You know what I mean
R3


[Outro]

R5
   Different types of love
R5
   Different types of love
R5
   Different types of love


       Asus2         G/A#
e|-----0---0-0------------------|
B|-----0---0-0------------------|
G|-----2---2-2---0---0---0-0----|
D|-----2---2-2---0---0---0-0----| x3
A|--0--0---0-0---3---1---1-1p0--|
E|--0---------------------------|

         Asus2  G/A#
Are possible
         Asus2  G/A#
Are possible
         Asus2  G/A#
Are possible
         R1  R1  R1  R1  
Are possible


--------------------------------------------------------------------------------------------------------------
                                             Track 5 – Ful Stop
--------------------------------------------------------------------------------------------------------------

Capo 2nd fret


Main riff following bass line:

    E/G#     A5                     
e|---------------------------------|
B|---------------------------------|
G|-----------2----2----2----2----2-|
D|--2--2--2--2----2----2----2----2-|
A|--x--x--x--0----0----0----0----0-|
E|--4--4--4------------------------|


[Intro]

E/G# A5 


[Verse 1]

E/G# A5              E/G#   A5             E/G# A5    E/G# A5    E/G# A5    E/G# A5 
       You really messed up everything
E/G# A5              E/G#   A5             E/G# A5    E/G# A5   
       You really messed up everything
E/G# A5                    E/G# A5         E/G# A5    E/G# A5   
       If you could take it all back again
E/G# A5                 E/G#   A5          E/G# A5    E/G# A5   
       Strike up what's in the box
E/G# A5                E/G#    A5          E/G# A5    E/G# A5   
       Why should I be good if you're not?
E/G# A5          E/G# A5                   E/G# A5    E/G# A5   
       This is a foul tasting medicine
E/G# A5       E/G#    A5                   E/G# A5    E/G# A5   
       A foul tasting medicine
E/G# A5                 E/G# A5            E/G# A5    E/G# A5   
       To be trapped in your full stop


[Chorus]

Guitar 1
e|----------------|------------------------------------|
B|----------------|------------------------------------|
G|----------------|-------2-------2-------2-------2----|
D|--------------0-|-------2-------2-------2-------2----|
A|--0--3--0--3----|-0---0---0---0---0---0---0---0---0--|
E|----------------|------------------------------------|

Truth will mess you up, truth will mess you up
Truth will mess you up, truth will mess you up


Guitar 1
e|------------------------------------|
B|------------------------------------|
G|-------2-------2-------2-------2----|
D|-------2-------2-------2-------2----|
A|------------------------------------|
E|-1---1---1---1---1---1---1---1---1--|

Truth will mess you up, truth will mess you up
Truth will mess you up, truth will mess you up


Guitar 1
e|------------------------------------|
B|------------------------------------|
G|-------2-------2-------2-------2----|
D|-------2-------2-------2-------2----|
A|-0---0---0---0---0---0---0---0---0--|
E|------------------------------------|

Guitar 2
e|--14------12-----------12-----------|
B|-------15------12---15--------------|
G|------------------------------------|
D|------------------------------------|
A|------------------------------------|
E|------------------------------------|

Truth will mess you up, truth will mess you up
          (all the good times)
Truth will mess you up, truth will mess you up
          (all the good times)
Truth will mess you up, truth will mess you up
          (all the good times)
Truth will mess you up, truth will mess you up
          (all the good times)
Truth will mess you up, truth will mess you up
          (all the good times)
Truth will mess you up, truth will mess you up
          (all the good times)
Truth will mess you up, truth will mess you up
          (all the good times)
Truth will mess you up, truth will mess you up
          (all the good times)


[Outro]

    E/G#     A5                       E/G#     A#maj7
e|---------------------------------|---------------------------------|
B|---------------------------------|-----------3----3----3----3----3-|
G|-----------2----2----2----2----2-|-----------2----2----2----2----2-|
D|--2--2--2--2----2----2----2----2-|--2--2--2--3----3----3----3----3-|
A|--x--x--x--0----0----0----0----0-|--x--x--x--1----1----1----1----1-|
E|--4--4--4------------------------|--4--4--4------------------------|

E/G# A5 
E/G# A5 
E/G# A5 

E/G#    A#maj7
Take me back again
E/G#    A5
Take me back
E/G#    A#maj7
Take me back again
E/G#    A5 

E/G#    A#maj7
Ahhh ahhh ahhh
E/G#    A5 
Ahhh ahhh ahhh
E/G#    A#maj7
Ahhh ahhh ahhh
E/G#    A5 
Ahhh ahhh ahhh


--------------------------------------------------------------------------------------------------------------
                                            Track 6 – Glass Eyes
--------------------------------------------------------------------------------------------------------------


Intro + Verse 1     Verse 2        Outro
---------------     ----------     ----------
Bm      x24432      Am  x02210     Bb  x13331
Emadd9  022002      Em  02200x     Bm  x24432
G       320003      D5  xx023x     Em  02200x
Em/A    x02000      C   x3201x     G   32003x
Em      02200x


Capo 1st fret


[Intro]

Bm      Bm  
Emadd9  Emadd9
G       G
Em/A    Em
Bm


[Verse 1]

Bm                                      
Hey it's me, I just got off the train
  Bm                                          Emadd9
A frightening place, their faces are concrete grey

And I'm wondering should I turn around
Emadd9                                 G
Buy another ticket, panic is coming on strong
                              G
So cold, from the inside out, no great job, no message coming in
     Em/A
And you're so small
                     Em
Glassy eyed light of day
                     Bm     Bm
Glassy eyed light of day


[Verse 2]

    Am
The path trails off, and heads down a mountain
Em                                          D5                    C                   
Through the dry bush, I don't know where it leads, I don't really care
        Am
And the path trails off, and heads down a mountain
Em                                          D5                    C
Through the dry bush, I don't know where it leads, I don't really care


[Outro]

Bb   Bb 

Bm             Em        G
   I feel this love turn cold
Bm             Em        G
   I feel this love turn cold
Bm   Bm


--------------------------------------------------------------------------------------------------------------
                                               Track 7 – Identikit
--------------------------------------------------------------------------------------------------------------

Coming soon...


--------------------------------------------------------------------------------------------------------------
                                              Track 8 – The Numbers
--------------------------------------------------------------------------------------------------------------


Verse            Chorus            Bridge          Outro  
------------     -------------     -----------     --------------
Am7   x0201x     G      32000x     C#5  x466xx     E7sus4  02020x
Em/A  xx200x     D      xx023x     D#5  x688xx     A       x0222x
D     xx023x     Fmaj7  xx3210     F    13321x
A     x0222x                       E    02210x
                                   G    32000x
                                   D    x0023x

Capo 3rd fret


[Intro]

    Am7            Em/A  D   A             Occasional riff
e|--------------------------------------|-----------------------|
B|--------1--1-x---0-x---3-----2-----2--|-----------------------|
G|--------0--0-x---0-x---2-----2-----2--|--0--2--4--2--0--2-----|
D|--------2--2-x---2-x---0-----2-----2--|--------------------2--|  x5
A|--0-0----------------------0-----0----|-----------------------|
E|--------------------------------------|-----------------------|


[Verse 1]
Am7         Em/A   D       A
   Holds us like a phantom
Am7             Em/A   D      A
   The touch is like a breeze
Am7              Em/A D        A
   It shines its understanding
Am7        Em/A D       A
   See the moon smiling
Am7  Em/A  D  A  


[Verse 2]
Am7     Em/A   D        A  
   Open on all channels
Am7      Em/A D     A  
   Ready to receive
Am7              Em/A   D     A  
   And we're not at the mercy
Am7              Em/A    D      A  
   Of your shimmerers or spells
Am7           Em/A    D      A  
   Your shimmerers or spells
Am7  Em/A  D  A  
Am7  Em/A  D  A  


[Verse 3]
Am7       Em/A   D     A  
   We are of the earth
Am7         Em/A  D    A  
   To her we do return
Am7           Em/A D    A  
   The future is inside us
Am7       Em/A        D    A  
   It's not somewhere else
Am7       Em/A        D    A  
   It's not somewhere else
Am7       Em/A        G   D        Am7  Em/A  D  A
   It's not somewhere else
                     (One day at a time)


[Chorus 1]
Am7  Em/A  D  A
G   D        Fmaj7
One day at a time


[Bridge]
C#5 D#5   F    E    G    D


[Verse 4]
Am7         Em/A    D      A  
   We call upon the people
Am7       Em/A      D     A  
   People have this power
Am7            Em/A    D    A  
   The numbers don't decide
Am7            Em/A D   A  
   Your system is a lie
Am7          Em/A    D   A  
   The river running dry
Am7          Em/A D     A  
   The wings of a butterfly
Am7  Em/A  D  A  


[Verse 5]
Am7            Em/A     D             A  
   And you may pour us away like soup
Am7           Em/A      D           A  
   Like we're pretty broken flowers
Am7           Em/A         D    A  
   We'll take back what is ours
Am7     Em/A         G    D
   Take back what is ours


[Chorus 2]
C#5 D#5   F    E
G   D        Fmaj7
One day at a time


[Outro]
E7sus4  A


--------------------------------------------------------------------------------------------------------------
                                         Track 9 – Present Tense
--------------------------------------------------------------------------------------------------------------

Capo 1st fret for A Moon Shaped Pool album version (live versions typically have no capo)


[Intro]

   Gm                            Cm                         D/Gb
e|-----------------------------|--------------------------|----------------------------|  |
B|-----11---11---------11------|--------------------------|----10----10--------10------|  |
G|-----------------------------|----8----8---------8------|----------------------------|  |
D|-------12-----12--------12---|--------------------------|-------12-----12-------12---|  |
A|-10---------------10------10-|------10----10-------10---|-9----------------9-------9-|  |
E|-----------------------------|-8--------------8-------8-|----------------------------|  |
                                                                                          |
   Bm                            Bb                         Eb                            |
e|-----------------------------|--------------------------|----------------------------|  |
B|-----------------------------|--------------------------|----8----8----------8-------|  |
G|------7----7----------7------|----7----7---------7------|----------------------------|  |
D|-----------------------------|--------------------------|------8------8---------8----|  |  x2
A|--------9------9---------9---|------8------8--------8---|-6---------------6-------6--|  |
E|--7----------------7-------7-|-6--------------6-------6-|----------------------------|  |
                                                                                          |
   Ab                            Fm                         Bb                            |
e|-----------------------------|--------------------------|----------------------------|  |
B|-----------------------------|----9----9---------9------|----------------------------|  |
G|------5----5----------5------|--------------------------|----7----7----------7-------|  |
D|-----------------------------|------10----10-------10---|----------------------------|  |
A|--------6------6---------6---|-8--------------8-------8-|------8------8---------8----|  |
E|--4----------------4-------4-|--------------------------|-6---------------6-------6--|  |

   Gm                            Cm                       
e|-----------------------------|--------------------------| 
B|-----11----11--------11------|----8----8---------8------|
G|--------0------0---------0---|------8------7--------7---|
D|-----------------------------|--------------------------| x2
A|-10---------------10------10-|--------------------------|
E|-----------------------------|-8--------------8-------8-|


[Verse 1] 

   Gm                         Cm                         Gm                         Cm                    
e|--------------------------|--------------------------|--------------------------|--------------------------|
B|-----11---11------11------|----8-----8--------8------|-----11---11------11------|----8-----8--------8------|
G|--------0----0--------0---|-------8-----7--------7---|--------0----0--------0---|-------8-----7--------7---|
D|--------------------------|--------------------------|--------------------------|--------------------------|
A|-10------------10------10-|--------------------------|-10------------10------10-|--------------------------|
E|--------------------------|-8--------------8-------8-|--------------------------|-8--------------8-------8-|
                    This      dance,                                      this      dance
  
   Eb                         Dm                         Eb                         Dm
e|--------------------------|--------------------------|--------------------------|--------------------------|
B|----8-----8--------8------|----6-----6--------6------|----8-----8--------8------|----6-----6--------6------|
G|-------0-----0--------0---|-------0-----0--------0---|-------0-----0--------0---|-------0-----0--------0---|
D|--------------------------|--------------------------|--------------------------|--------------------------|
A|-6--------------6-------6-|-5--------------5-------5-|-6--------------6-------6-|-5--------------5-------5-|
E|--------------------------|--------------------------|--------------------------|--------------------------|
                    Is like a weapon,                                     is like a weapon

   Gm                         Cm                         Gm                         Cm                    
e|--------------------------|--------------------------|--------------------------|--------------------------|
B|-----11---11------11------|----8-----8--------8------|-----11---11------11------|----8-----8--------8------|
G|--------0----0--------0---|-------8-----7--------7---|--------0----0--------0---|-------8-----7--------7---|
D|--------------------------|--------------------------|--------------------------|--------------------------|
A|-10------------10------10-|--------------------------|-10------------10------10-|--------------------------|
E|--------------------------|-8--------------8-------8-|--------------------------|-8--------------8-------8-|
                    Of self defense,                                      of self defense

   Eb                         Dm                         Eb                         Dm
e|--------------------------|--------------------------|--------------------------|--------------------------|
B|----8-----8--------8------|----6-----6--------6------|----8-----8--------8------|----6-----6--------6------|
G|-------0-----0--------0---|-------0-----0--------0---|-------0-----0--------0---|-------0-----0--------0---|
D|--------------------------|--------------------------|--------------------------|--------------------------|
A|-6--------------6-------6-|-5--------------5-------5-|-6--------------6-------6-|-5--------------5-------5-|
E|--------------------------|--------------------------|--------------------------|--------------------------|
                  Against the present,                                  against the present

   Eb                         Fsus2
e|--------------------------|--------------------------|
B|----8-----8--------8------|----8-----8--------8------|
G|-------0-----0--------0---|-------0-----0--------0---|
D|--------------------------|--------------------------|
A|-6--------------6-------6-|-8--------------8-------8-|
E|--------------------------|--------------------------|
                     Present tense


[Verse 2]

   Gm                         Cm                         Gm                         Cm                    
e|--------------------------|--------------------------|--------------------------|--------------------------|
B|-----11---11------11------|----8-----8--------8------|-----11---11------11------|----8-----8--------8------|
G|--------0----0--------0---|-------8-----7--------7---|--------0----0--------0---|-------8-----7--------7---|
D|--------------------------|--------------------------|--------------------------|--------------------------|
A|-10------------10------10-|--------------------------|-10------------10------10-|--------------------------|
E|--------------------------|-8--------------8-------8-|--------------------------|-8--------------8-------8-|
                  I won't get heavy,                                      don’t get heavy

   Eb                         Dm                         Eb                         Csus4/B
e|--------------------------|--------------------------|--------------------------|--------------------------|
B|----8-----8--------8------|----6-----6--------6------|----8-----8--------8------|----6-----6--------6------|
G|-------0-----0--------0---|-------0-----0--------0---|-------0-----0--------0---|-------0-----0--------0---|
D|--------------------------|--------------------------|--------------------------|--------------------------|
A|-6--------------6-------6-|-5--------------5-------5-|-6--------------6-------6-|--------------------------|
E|--------------------------|--------------------------|--------------------------|-7--------------7-------7-|
                      Keep it light and,                                    keep it moving

   Eb                         Dm                         Eb                         Fsus2
e|--------------------------|--------------------------|--------------------------|--------------------------|
B|----8-----8--------8------|----6-----6--------6------|----8-----8--------8------|----8-----8--------8------|
G|-------0-----0--------0---|-------0-----0--------0---|-------0-----0--------0---|-------0-----0--------0---|
D|--------------------------|--------------------------|--------------------------|--------------------------|
A|-6--------------6-------6-|-5--------------5-------5-|-6--------------6-------6-|-8--------------8-------8-|
E|--------------------------|--------------------------|--------------------------|--------------------------|
                         I am doing,                                             no harm


[Verse 3] 

   Gm                         Cm                         Gm                         Cm                    
e|--------------------------|--------------------------|--------------------------|--------------------------|
B|-----11---11------11------|----8-----8--------8------|-----11---11------11------|----8-----8--------8------|
G|--------0----0--------0---|-------8-----7--------7---|--------0----0--------0---|-------8-----7--------7---|
D|--------------------------|--------------------------|--------------------------|--------------------------|
A|-10------------10------10-|--------------------------|-10------------10------10-|--------------------------|
E|--------------------------|-8--------------8-------8-|--------------------------|-8--------------8-------8-|
                        As my world,                                          comes crashing down

   Eb                         Dm                         Eb                         Csus4/B
e|--------------------------|--------------------------|--------------------------|--------------------------|
B|----8-----8--------8------|----6-----6--------6------|----8-----8--------8------|----6-----6--------6------|
G|-------0-----0--------0---|-------0-----0--------0---|-------0-----0--------0---|-------0-----0--------0---|
D|--------------------------|--------------------------|--------------------------|--------------------------|
A|-6--------------6-------6-|-5--------------5-------5-|-6--------------6-------6-|--------------------------|
E|--------------------------|--------------------------|--------------------------|-7--------------7-------7-|
                      I'll be dancing,                                     freaking out

   Eb                         Fsus2                      Gm                        
e|--------------------------|--------------------------|--------------------------|
B|----8-----8--------8------|----8-----8--------8------|-----11---11-------11-----|
G|-------0-----0--------0---|-------0-----0--------0---|--------0----0--------0---|
D|--------------------------|--------------------------|--------------------------|
A|-6--------------6-------6-|-8--------------8-------8-|-10------------10------10-|
E|--------------------------|--------------------------|--------------------------|
                        Deaf, dumb,                  and blind


[Chorus 1]

   Gm                         Gm             F           Bb                         Bb
e|--------------------------|--------------------------|--------------------------|--------------------------|
B|--------------------------|--------------------------|----3-----3--------3------|----3-----3--------3------|
G|----3-----3--------3------|----3-----3--------2------|-------3-----3--------3---|-------3-----3--------3---|
D|-------0-----0--------0---|-------0-----0--------0---|--------------------------|--------------------------|
A|--------------------------|--------------------------|-1--------------1---------|-1--------------1---------|
E|-3--------------3---------|-3--------------1---------|--------------------------|--------------------------|

   Eb                         C                          Gm                         Gm             F
e|--------------------------|--------------------------|--------------------------|--------------------------|
B|----8-----8--------8------|----5-----5--------5------|--------------------------|--------------------------|
G|-------0-----0--------0---|-------0-----0--------0---|----3-----3--------3------|----3-----3--------2------|
D|--------------------------|--------------------------|-------0-----0--------0---|-------0-----0--------0---|
A|-6--------------6------6--|-3--------------3-------3-|--------------------------|--------------------------|
E|--------------------------|--------------------------|--3-------------3---------|-3--------------1---------|
                                                                                                   In you I'm 
   Bb                         Bb                         Eb                         C                        
e|--------------------------|--------------------------|--------------------------|--------------------------|
B|----3-----3--------3------|----3-----3--------3------|----8-----8--------8------|----5-----5--------5------|
G|-------3-----3--------3---|-------3-----3--------3---|-------0-----0--------0---|-------0-----0--------0---|
D|--------------------------|--------------------------|--------------------------|--------------------------|
A|-1--------------1---------|-1--------------1---------|-6--------------6------6--|-3--------------3-------3-|
E|--------------------------|--------------------------|--------------------------|--------------------------|
   Lost,                                      in you I'm lost


[Bridge]

   Gm                            Cm                         D/Gb
e|-----------------------------|--------------------------|----------------------------| 
B|-----11---11---------11------|--------------------------|----10----10--------10------| 
G|-----------------------------|----8----8---------8------|----------------------------| 
D|-------12-----12--------12---|--------------------------|-------12-----12-------12---| 
A|-10---------------10------10-|------10----10-------10---|-9----------------9-------9-| 
E|-----------------------------|-8--------------8-------8-|----------------------------| 
            I won't turn around,      when the penny drops,            I won't stop now
                                                                                        
   Bm                            Bb                         Eb                           
e|-----------------------------|--------------------------|----------------------------| 
B|-----------------------------|--------------------------|----8----8----------8-------| 
G|------7----7----------7------|----7----7---------7------|----------------------------| 
D|-----------------------------|--------------------------|------8------8---------8----|
A|--------9------9---------9---|------8------8--------8---|-6---------------6-------6--| 
E|--7----------------7-------7-|-6--------------6-------6-|----------------------------| 
              I won't slack off,          or all this love,             will be in vain
                                                                                      
   Ab                            Fm                         Bb                            
e|-----------------------------|--------------------------|----------------------------|  
B|-----------------------------|----9----9---------9------|----------------------------| 
G|------5----5----------5------|--------------------------|----7----7----------7-------| 
D|-----------------------------|------10----10-------10---|----------------------------| 
A|--------6------6---------6---|-8--------------8-------8-|------8------8---------8----| 
E|--4----------------4-------4-|--------------------------|-6---------------6-------6--| 


   Gm                            Cm                         D/Gb
e|-----------------------------|--------------------------|----------------------------| 
B|-----11---11---------11------|--------------------------|----10----10--------10------| 
G|-----------------------------|----8----8---------8------|----------------------------| 
D|-------12-----12--------12---|--------------------------|-------12-----12-------12---| 
A|-10---------------10------10-|------10----10-------10---|-9----------------9-------9-| 
E|-----------------------------|-8--------------8-------8-|----------------------------| 
              Stop from falling,               down a mine,      it's no one's business
                                                                                        
   Bm                            Bb                         Eb                           
e|-----------------------------|--------------------------|----------------------------| 
B|-----------------------------|--------------------------|----8----8----------8-------| 
G|------7----7----------7------|----7----7---------7------|----------------------------| 
D|-----------------------------|--------------------------|------8------8---------8----|
A|--------9------9---------9---|------8------8--------8---|-6---------------6-------6--| 
E|--7----------------7-------7-|-6--------------6-------6-|----------------------------| 
                      But mine,         that all this love,            could be in vain
                                                                                       
   Ab                            Fm                         Bb                            
e|-----------------------------|--------------------------|----------------------------|  
B|-----------------------------|----9----9---------9------|----------------------------| 
G|------5----5----------5------|--------------------------|----7----7----------7-------| 
D|-----------------------------|------10----10-------10---|----------------------------| 
A|--------6------6---------6---|-8--------------8-------8-|------8------8---------8----| 
E|--4----------------4-------4-|--------------------------|-6---------------6-------6--| 


[Chorus 2]

   Eb                         C                          Gm                         Gm             F
e|--------------------------|--------------------------|--------------------------|--------------------------|
B|----8-----8--------8------|----5-----5--------5------|--------------------------|--------------------------|
G|-------0-----0--------0---|-------0-----0--------0---|----3-----3--------3------|----3-----3--------2------|
D|--------------------------|--------------------------|-------0-----0--------0---|-------0-----0--------0---|
A|-6--------------6------6--|-3--------------3-------3-|--------------------------|--------------------------|
E|--------------------------|--------------------------|-3--------------3---------|-3--------------1---------|
                                                                                                   In you I'm 
   Bb                         Bb                         Eb                         C                        
e|--------------------------|--------------------------|--------------------------|--------------------------|
B|----3-----3--------3------|----3-----3--------3------|----8-----8--------8------|----5-----5--------5------|
G|-------3-----3--------3---|-------3-----3--------3---|-------0-----0--------0---|-------0-----0--------0---|
D|--------------------------|--------------------------|--------------------------|--------------------------|
A|-1--------------1---------|-1--------------1---------|-6--------------6------6--|-3--------------3-------3-|
E|--------------------------|--------------------------|--------------------------|--------------------------|
   Lost,                                      in you I'm lost

   Eb                         C                          Gm                         Gm             F
e|--------------------------|--------------------------|--------------------------|--------------------------|
B|----8-----8--------8------|----5-----5--------5------|--------------------------|--------------------------|
G|-------0-----0--------0---|-------0-----0--------0---|----3-----3--------3------|----3-----3--------2------|
D|--------------------------|--------------------------|-------0-----0--------0---|-------0-----0--------0---|
A|-6--------------6------6--|-3--------------3-------3-|--------------------------|--------------------------|
E|--------------------------|--------------------------|-3--------------3---------|-3--------------1---------|
                                                                                                   In you I'm 
   Bb                         Bb                         Eb                         C                        
e|--------------------------|--------------------------|--------------------------|--------------------------|
B|----3-----3--------3------|----3-----3--------3------|----8-----8--------8------|----5-----5--------5------|
G|-------3-----3--------3---|-------3-----3--------3---|-------0-----0--------0---|-------0-----0--------0---|
D|--------------------------|--------------------------|--------------------------|--------------------------|
A|-1--------------1---------|-1--------------1---------|-6--------------6------6--|-3--------------3-------3-|
E|--------------------------|--------------------------|--------------------------|--------------------------|
   Lost,                                      in you I'm lost


[Outro]

   Gm                         Cm                         Gm                         Cm                    
e|--------------------------|--------------------------|--------------------------|--------------------------|
B|-----11---11------11------|----8-----8--------8------|-----11---11------11------|----8-----8--------8------|
G|--------0----0--------0---|-------8-----7--------7---|--------0----0--------0---|-------8-----7--------7---|
D|--------------------------|--------------------------|--------------------------|--------------------------|
A|-10------------10------10-|--------------------------|-10------------10------10-|--------------------------|
E|--------------------------|-8--------------8-------8-|--------------------------|-8--------------8-------8-|

   Gm                         Cm                         Gm                         Cm                    
e|--------------------------|--------------------------|--------------------------|--------------------------|
B|-----11---11------11------|----8-----8--------8------|-----11---11------11------|----8-----8--------8------|
G|--------0----0--------0---|-------8-----7--------7---|--------0----0--------0---|-------8-----7--------7---|
D|--------------------------|--------------------------|--------------------------|--------------------------|
A|-10------------10------10-|--------------------------|-10------------10------10-|--------------------------|
E|--------------------------|-8--------------8-------8-|--------------------------|-8--------------8-------8-|

   Gm                        
e|--------------------------| 
B|-11-----------------------|
G|--0-----------------------|
D|--------------------------|
A|-10-----------------------|
E|--------------------------|


--------------------------------------------------------------------------------------------------------------
                  Track 10 – Tinker Tailor Soldier Sailor Rich Man Poor Man Beggar Man Thief
--------------------------------------------------------------------------------------------------------------


[Intro]

e|-------------------------------------------|
B|-------------------------------------------|
G|---1-----1--------1--------0--1-----3------|
D|---2-----2--3-----2--3-----1--2-----4--3---|
A|------------4--------4-----------------4---|
E|-------------------------------------------|

e|-------------------------------------------|
B|-------------------------------------------|
G|---1--------0--1--------1--3--------1--3---|
D|---2--3-----1--2--1-----2--4--------2--4---|
A|------4-----------2------------------------|
E|-------------------------------------------|

e|----------------------------------|
B|----------------------------------|
G|---------1--------0--1-----3------|
D|---3-----2--3-----1--2-----4--3---|
A|---4--------4-----------------4---|
E|----------------------------------|


[Verse 1]

     E  C#    D# E     F# C#
e|----------------------------|
B|----------------------------|
G|---1--------0--1-----3------|
D|---2--3-----1--2-----4--3---| x3
A|------4-----------------4---|
E|----------------------------|

              E C#         D# E       F#    C#
All the holes ---- at once ---- are coming alive, set free
E C#        D# E         F#  C#
     Out of sight and out of mind, and lonely
E C#     D#    E      F#  C#
     And their prey


e|---------------|
B|---------------|
G|---0--1--------|
D|---1--2----1---|
A|-----------2---|
E|---------------|


[Chorus 1]

     E  F#    E  F#      C# D#    E  B
e|-------------------|-------------------|
B|-------------------|-------------------|
G|---1--3-----1--3---|------0-----1------|
D|---2--4-----2--4---|---3--1-----2--1---| x2
A|-------------------|---4-----------2---|
E|-------------------|-------------------|

    E        F#         E        F#         C#  D#    E   B 
The ones you light your fires to keep away
E        F#   E     F#       C#  D#    E   B
Crawling out upon expending


     E   F#    E   F#      
e|---------------------|
B|---------------------|
G|---1---3-----1---3---|
D|---2---4-----2---4---|
A|---------------------|
E|---------------------|

    E       F#      E     F#   
And all you have to do is say


[Bridge]

Guitar 1:
     C#
e|----------------------------------|
B|----------------------------------|
G|---------1--------0--1-----3------|
D|---3-----2--3-----1--2-----4--3---|
A|---4--------4-----------------4---|
E|----------------------------------|

C#
    Yeah

Guitar 2: electric fill
e|---21--19-----------------------------------------------------------|
B|-----------21--19--21--19-------------------------------------------|
G|---------------------------21--18--18--16---------------------------|
D|-------------------------------------------18--16--18--16-----------|
A|-----------------------------------------------------------19--16---|
E|--------------------------------------------------------------------|


e|-------------------------------------|
B|-------------------------------------|
G|---1--------0--1--------1--3---------|
D|---2--3-----1--2--1-----2--4-----3---|
A|------4-----------2--------------4---|
E|-------------------------------------|


[Verse 2]

     E  C#    D# E     F# C#
e|----------------------------|
B|----------------------------|
G|---1--------0--1-----3------|
D|---2--3-----1--2-----4--3---| x3
A|------4-----------------4---|
E|----------------------------|

              E C#         D# E     F# C#
All the birds ---- stay up ---- in the trees
             E C#           D# E  F# C#
All the fish ---- swim down ---- too deep, and lonely
E C#     D#    E      F#  C#
     And their prey


     E  C#   D#  E  B     E  C#       E  C#
e|-------------------------------------------|
B|-------------------------------------------|
G|---1--------0--1--------1--3--------1--3---|
D|---2--3-----1--2--1-----2--4--------2--4---|
A|------4-----------2------------------------|
E|-------------------------------------------|

           E C#            D# E B               E  C#   E  C#
Honey came ---- come to me ---- before it's too late


e|-------------------|
B|-------------------|
G|------0-----1------|
D|---3--1-----2--1---|
A|---4-----------2---|
E|-------------------|


[Chorus 2]

     E  F#    E  F#      C# D#    E  B
e|-------------------|-------------------|
B|-------------------|-------------------|
G|---1--3-----1--3---|------0-----1------|
D|---2--4-----2--4---|---3--1-----2--1---| x2
A|-------------------|---4-----------2---|
E|-------------------|-------------------|

    E       F#         E        F#         C#  D#    E   B 
The one you watch your fires to keep away
   E        F#   E     F#       C#  D#    E   B
Is crawling out upon expelling


     E   F#    E   F#    C#  
e|---------------------------|
B|---------------------------|
G|---1---3-----1---3---------|
D|---2---4-----2---4-----3---|
A|-----------------------4---|
E|---------------------------|

E       F#      E     F#   C#
All you have to do is say, yeah


--------------------------------------------------------------------------------------------------------------
                                          Track 11 – True Love Waits
--------------------------------------------------------------------------------------------------------------


[Intro]

   Cmaj7                         
e|--------------------------|    
B|--------------------------|    
G|---------4--------------4-|    
D|----5-----------5---------|x2  
A|-3----3-----3-------3-----|    
E|--------------------------|    


[Verse 1]

   Cmaj7                                                                                       C
e|--------------------------|--------------------------|--------------------------|--------------------------|
B|--------------------------|--------------------------|--------------------------|--------------------------|
G|---------4--------------4-|---------4--------------4-|---------4--------------4-|---------4--------------5-|
D|----5-----------5---------|----5-----------5---------|----5-----------5---------|----5-----------5---------|
A|-3----3-----3-------3-----|-3----3-----3-------3-----|-3----3-----3-------3-----|-3----3-----3-------3-----|
E|--------------------------|--------------------------|--------------------------|--------------------------|
                      I'll    drown      my       beliefs

   Am7                                                   G#maj7
e|--------------------------|--------------------------|--------------------------|--------------------------|
B|--------------------------|--------------------------|--------------------------|--------------------------|
G|---------5--------------5-|---------5--------------5-|---------5--------------5-|---------5--------------5-|
D|----5-----------5---------|----5-----------5---------|----5-----------5---------|----5-----------5---------|
A|------3-------------3-----|--------------------------|------3-------------3-----|------3-------------3-----|
E|-5----------5-------------|-5----5-----5-------5-----|-4----------4-------------|-4----------4-------------|
                           To have your ba-         -bies

   Cmaj7                                                                        
e|--------------------------|--------------------------|--------------------------|--------------------------|
B|--------------------------|--------------------------|--------------------------|--------------------------|
G|---------4--------------4-|---------4--------------4-|---------4--------------4-|---------4--------------4-|
D|----5-----------5---------|----5-----------5---------|----5-----------5---------|----5-----------5---------|
A|-3----3-----3-------3-----|-3----3-----3-------3-----|-3----3-----3-------3-----|-3----3-----3-------3-----|
E|--------------------------|--------------------------|--------------------------|--------------------------|
                      I'll    dress      like   your niece

   Am7                                                   G#maj7
e|--------------------------|--------------------------|--------------------------|--------------------------|
B|--------------------------|--------------------------|--------------------------|--------------------------|
G|---------5--------------5-|---------5--------------5-|---------5--------------5-|---------5----------------|
D|----5-----------5---------|----5-----------5---------|----5-----------5---------|----5-----------5---------|
A|------3-------------3-----|--------------------------|------3-------------3-----|------3-------------------|
E|-5----------5-------------|-5----5-----5-------5-----|-4----------4-------------|-4----------4-------------|
                          And wash your swollen      feet


[Chorus 1] 

   Cmaj7      C                          Csus4           C                                     G/B
e|--------------------------|--------------------------|--------------------------|--------------------------|
B|--------------------------|--------------------------|--------------------------|--------------------------|
G|---------4--------------5-|---------5----------5-----|---------5----------5-----|---------5--------------4-|
D|----5-----------5---------|----5-----------3-------3-|--------------------------|----------------5---------|
A|-3----3-----3-------3-----|-3----3-----3-------------|-3----3-----3----------3--|-3----3-----2-------2-----|
E|--------------------------|--------------------------|--------------------------|--------------------------|
   Just                                  don't           leave,                                don’t

   Am7                                                   C/G
e|--------------------------|--------------------------|--------------------------|--------------------------|
B|--------------------------|--------------------------|--------------------------|--------------------------|
G|---------5--------------5-|---------5--------------5-|---------5--------------5-|---------5--------------5-|
D|----5-----------5---------|----5-----------5---------|----5-----------5---------|----5-----------5---------|
A|------3-------------3-----|------3-------------3-----|------3-------------3-----|------3-------------3-----|
E|-5----------5-------------|-5----------5-------------|-3----------3-------------|-3----------3-------------|
   leave


[Verse 2]

   Cmaj7                                                                             
e|--------------------------|--------------------------|--------------------------|--------------------------|
B|--------------------------|--------------------------|--------------------------|--------------------------|
G|---------4--------------4-|---------4--------------4-|---------4--------------4-|---------4--------------5-|
D|----5-----------5---------|----5-----------5---------|----5-----------5---------|----5-----------5---------|
A|-3----3-----3-------3-----|-3----3-----3-------3-----|-3----3-----3-------3-----|-3----3-----3-------3-----|
E|--------------------------|--------------------------|--------------------------|--------------------------|
                      I'm     not        living

   Am7                                                   G#maj7
e|--------------------------|--------------------------|--------------------------|--------------------------|
B|--------------------------|--------------------------|--------------------------|--------------------------|
G|---------5--------------5-|---------5--------------5-|---------5--------------5-|---------5--------------5-|
D|----5-----------5---------|----5-----------5---------|----5-----------5---------|----5-----------5---------|
A|------3-------------3-----|--------------------------|------3-------------3-----|------3-------------3-----|
E|-5----------5-------------|-5----5-----5-------5-----|-4----------4-------------|-4----------4-------------|
                              I'm just killing        time

   Cmaj7                                                                        
e|--------------------------|--------------------------|--------------------------|--------------------------|
B|--------------------------|--------------------------|--------------------------|--------------------------|
G|---------4--------------4-|---------4--------------4-|---------4--------------4-|---------4--------------4-|
D|----5-----------5---------|----5-----------5---------|----5-----------5---------|----5-----------5---------|
A|-3----3-----3-------3-----|-3----3-----3-------3-----|-3----3-----3-------3-----|-3----3-----3-------3-----|
E|--------------------------|--------------------------|--------------------------|--------------------------|
                      Your    tiny                   hands

   Am7                                                   G#maj7
e|--------------------------|--------------------------|--------------------------|--------------------------|
B|--------------------------|--------------------------|--------------------------|--------------------------|
G|---------5--------------5-|---------5--------------5-|---------5--------------5-|---------5----------------|
D|----5-----------5---------|----5-----------5---------|----5-----------5---------|----5-----------5---------|
A|------3-------------3-----|--------------------------|------3-------------3-----|------3-------------------|
E|-5----------5-------------|-5----5-----5-------5-----|-4----------4-------------|-4----------4-------------|
                          Your crazy kitten          smile


[Chorus 2] 

   Cmaj7      C                          Csus4           C                                     G/B
e|--------------------------|--------------------------|--------------------------|--------------------------|
B|--------------------------|--------------------------|--------------------------|--------------------------|
G|---------4--------------5-|---------5----------5-----|---------5----------5-----|---------5--------------4-|
D|----5-----------5---------|----5-----------3-------3-|--------------------------|----------------5---------|
A|-3----3-----3-------3-----|-3----3-----3-------------|-3----3-----3----------3--|-3----3-----2-------2-----|
E|--------------------------|--------------------------|--------------------------|--------------------------|
   Just                                  don't           leave,                                don’t

   Am7                                                   C/G                        G#maj7     Fsus2
e|--------------------------|--------------------------|--------------------------|--------------------------|
B|--------------------------|--------------------------|--------------------------|---------1--------------1-|
G|---------5--------------5-|---------5--------------5-|---------5--------------5-|----0-----------0---------|
D|----5-----------5---------|----5-----------5---------|----5-----------5---------|--------------------------|
A|------3-------------3-----|------3-------------3-----|------3-------------3-----|------3-------------3-----|
E|-5----------5-------------|-5----------5-------------|-3----------3-------------|-4----------1-------------|
   leave


[Verse 3]

   Cmaj7                                                                          
e|--------------------------|--------------------------|--------------------------|--------------------------|
B|--------------------------|--------------------------|--------------------------|--------------------------|
G|---------4--------------4-|---------4--------------4-|---------4--------------4-|---------4--------------4-|
D|----5-----------5---------|----5-----------5---------|----5-----------5---------|----5-----------5---------|
A|-3----3-----3-------3-----|-3----3-----3-------3-----|-3----3-----3-------3-----|-3----3-----3-------3-----|
E|--------------------------|--------------------------|--------------------------|--------------------------|
                      And     true       love        waits

   Am7                                                   G#maj7
e|--------------------------|--------------------------|--------------------------|--------------------------|
B|--------------------------|--------------------------|--------------------------|--------------------------|
G|---------5--------------5-|---------5--------------5-|---------5--------------5-|---------5--------------5-|
D|----5-----------5---------|----5-----------5---------|----5-----------5---------|----5-----------5---------|
A|------3-------------3-----|--------------------------|------3-------------3-----|------3-------------3-----|
E|-5----------5-------------|-5----5-----5-------5-----|-4----------4-------------|-4----------4-------------|
                              In haunted           attics

   Cmaj7                                                                                       C
e|--------------------------|--------------------------|--------------------------|--------------------------|
B|--------------------------|--------------------------|--------------------------|--------------------------|
G|---------4--------------4-|---------4--------------4-|---------4--------------4-|---------4--------------5-|
D|----5-----------5---------|----5-----------5---------|----5-----------5---------|----5-----------5---------|
A|-3----3-----3-------3-----|-3----3-----3-------3-----|-3----3-----3-------3-----|-3----3-----3-------3-----|
E|--------------------------|--------------------------|--------------------------|--------------------------|
                      And     true       love        lives

   Am7                                                   G#maj7
e|--------------------------|--------------------------|--------------------------|--------------------------|
B|--------------------------|--------------------------|--------------------------|--------------------------|
G|---------5--------------5-|---------5--------------5-|---------5--------------5-|---------5----------------|
D|----5-----------5---------|----5-----------5---------|----5-----------5---------|----5-----------5---------|
A|------3-------------3-----|--------------------------|------3-------------3-----|------3-------------------|
E|-5----------5-------------|-5----5-----5-------5-----|-4----------4-------------|-4----------4-------------|
                              On lollipops and       crisps
     

[Chorus 3] 

   Cmaj7      C                          Csus4           C                                     G/B
e|--------------------------|--------------------------|--------------------------|--------------------------|
B|--------------------------|--------------------------|--------------------------|--------------------------|
G|---------4--------------5-|---------5----------5-----|---------5----------5-----|---------5--------------4-|
D|----5-----------5---------|----5-----------3-------3-|--------------------------|----------------5---------|
A|-3----3-----3-------3-----|-3----3-----3-------------|-3----3-----3----------3--|-3----3-----2-------2-----|
E|--------------------------|--------------------------|--------------------------|--------------------------|
   Just                                  don't           leave,                                don’t

   Am7                                                   C/G
e|--------------------------|--------------------------|--------------------------|--------------------------|
B|--------------------------|--------------------------|--------------------------|--------------------------|
G|---------5--------------5-|---------5--------------5-|---------5--------------5-|---------5--------------4-|
D|----5-----------5---------|----5-----------5---------|----5-----------5---------|----5-----------5---------|
A|------3-------------3-----|------3-------------3-----|------3-------------3-----|------3-------------3-----|
E|-5----------5-------------|-5----------5-------------|-3----------3-------------|-3----------3-------------|
   leave

   Cmaj7                 
e|--------------------------|
B|--------------------------|
G|---------4----------------|
D|----5---------------------|
A|-3----3-------------------|
E|--------------------------|



            
            
Suggest correction
Creating personal tab
Creating personal tab
You can edit any tab online and save it as your Personal.

You can edit, replace or remove any tab part or add personal notes – all changes will be seen only by you.

Personal tabs can be accessed anytime from any device, even offline.
Learn more »
comments
print report bad tab
5 comments total. Showing first comments.
+1 reply
Manupllc 31 May 25, 2016 10:01 PM, edited on May 26 2016, 02:03 am

Fantastic. Really a great collection here. Appreciate the effort and time put forth in putting this all together. Just wanted to point out one minor correction for your review, and hope you will consider. I tabbed out the interlude to Daydreaming, which while a small contribution, I believe to be 100% correct. Please consider checking out my tab of that interlude here. Thanks.

correct.https://tabs.ultimate-guitar.com/r/radiohead/daydreaming_interlude_solo_tab.htm

0 reply
osmark90 195 Jun 25, 2016 11:52 AM

Fantastic job. Thank you.

0 reply
jakobbogarve 10 Oct 28, 2016 10:44 PM

The last part of Ful Stop goes:

e|--------------------------|
B|--------------------------|
G|--5/7--9--5/7-------------|
D|---------------7----------|
A|--------------------------|
E|--------------------------|

guest
You may want to rate the tab now too:
select rating
Wanna post a correction for this tab? Suggest correction