Oops, an error
Loading. Please wait.

A Wolf At The Door Tab

version 1
version 1

Whole song

Interactive

101,450 views 180 this week
13 commentsread comments
1 2 3 4 5
excellent!
x 57
add to favorites
launch autoscroll
font size
0
reset
how to read this tab
guitar tuner
Autoscroll
slow
fast
+/-
esc
set tempo
stop
Help us to improve Ultimate-Guitar.com Take our survey!
×
Author
Difficulty
intermediate
Tuning: Standard (E A D G B E)

Gtr I - Steel Stringed Acoustic
Gtr II - Clean Electric
Gtr III - Distorted Electric w/Chorus


[Intro]

 6/8
 Q=69,5 bpm
 Gtr I

  Dm            Dsus2         Eb/G          Gm            Asus4         A/G
  E E E E E E   E E E E E E   E E E E E E   E E E E E E   E E E E E E   E E E E E E
e|-------------|-------------|-------------|-------------|-------------|-------------|
B|-------6-----|-------5-----|-------4-----|-------3-----|-------3-----|-------2-----|
G|-----7---7---|-----7---7---|-----3---3---|-----3---3---|-----2---2---|-----2---2---|
D|---7-------7-|---7-------7-|---5-------5-|---5-------5-|---2-------2-|---2-------2-|
A|-5-----------|-5-----------|-------------|-------------|-0-----------|-------------|
E|-------------|-------------|-3*----------|-3*----------|-------------|-3-----------|

                               *use your thumb for these chords


[Verse 1]

 Gtrs I, II:
Verse Riff
(In the very left of the sound panorama is an overdriven electric guitar loosely
 strumming some chords, but as it's almost impossible to say what's excactly played,
 so I've just left that part out - but just play the chords from just above.)


 2nd Verse
 Gtrs I, II:
Verse Riff, but end on this bar instead:

  A/G
  E E E E E E
e|-----------0-|
B|-------2-3---|
G|-----2-------|
D|---2---------|
A|-------------|
E|-3-----------|



[Verse 3]
(similar to 1st Verse)


[Chorus]

 Gtrs I, II
  D/F#                        G
  E E E E E E   E E E E E E   E E E E E E   E E E E E E
e|-------------|-------------|-------------|-------------|
B|-----3-----3-|-----3-----3-|-----3-----3-|-----3-----3-|
G|---2-----2---|---2-----2---|---4-----4---|---4-----4---|
D|-------------|-------------|-------------|-------------|
A|-------------|-------------|-------------|-------------|
E|-2-----2-----|-2-----2-----|-3-----3-----|-3-----3-----|



 Gtr I
  Dmaj7/F#                    Dmaj7/F#                           G
  E E E E E E   E E E E E E   H.                                 H.
e|-------------|-------------|----------------------------------|----------------|
B|-----2-----2-|-----2-----2-|-2--------------------------------|-3--------------|
G|---2-----2---|---2-----2---|-2--------------------------------|-4--------------|
D|-------------|-------------|-0--------------------------------|-0--------------|
A|-------------|-------------|-x--------------------------------|-x--------------|
E|-2-----2-----|-2-----2-----|-2--------------------------------|-3--------------|

Gtr II
                                \0.25/
                                 |-3-|
  E E E E E E   E E E E E E   E +E  +Q     S  S  S  S  E      Q    E  Q.
e|-------------|-------------|-2-(2)-(2)---17-15-14h15-14---|----------------|
B|-----2-----2-|-----2-----2-|-2-(2)-(2)--------------------|-15---14--------|
G|---2-----2---|---2-----2---|-2-(2)-(2)--------------------|---------16-----|
D|-------------|-------------|------------------------------|----------------|
A|-------------|-------------|------------------------------|----------------|
E|-2-----2-----|-2-----2-----|------------------------------|----------------|


[Bridge]

 Gtr II
  Dm             Cadd9         Bb            Am            A
  E E E E E E    E E E E E E   E E E E E E   E E E E E E   E E E E E E
e|-------1------|-------------|-------------|-------------|-------------|
B|-----3---3----|-------3-----|-------3-----|-------1-----|-------2-----|
G|---2-------2--|-----0---0---|-----3---3---|-----2---2---|-----2---2---|
D|-0------------|---2-------2-|---3-------3-|---2-------2-|---2-------2-|
A|--------------|-3-----------|-1-----------|-0-----------|-0-----------|
E|--------------|-------------|-------------|-------------|-------------|


  Dm             Cadd9         Bb            Am            A
  E E E E E E    E E E E E E   E E E E E E   E E E E E E   E E E E E E
e|-------1------|-------------|-------------|-------------|-----------0-|
B|-----3---3----|-------3-----|-------3-----|-------1-----|-------2-3---|
G|---2-------2--|-----0---0---|-----3---3---|-----2---2---|-----2-------|
D|-0------------|---2-------2-|---3-------3-|---2-------2-|---2---------|
A|--------------|-3-----------|-1-----------|-0-----------|-0-----------|
E|--------------|-------------|-------------|-------------|-------------|


  Dm             Cadd9/G       Bb6           F(#5)
  E E E E E E    E E E E E E   E E E E E E   E E E Q.
e|-------1------|-------0-----|-------------|-------------|
B|-----3---3----|---------3---|-------3-----|-------2-----|
G|---2-------2--|-------------|-----0---0---|---2---------|
D|-0------------|-2---------3-|---3-------3-|-3---3-------|
A|--------------|---3---------|-1-----------|-------------|
E|--------------|-----3-------|-------------|-------------|


[Verse 4]
(similar to 2nd Verse, add this part)


 Gtr III
                       *tremolo pick 32nd part-triads = 6 strokes per 8th part note*
                       TP----------------------------------------------------------|
  H.             Q.    Q   E   H.            +H      E E   +E  Q +Q.     +Q  E E E E
e|--------------|-------------|-------------|-------------|-------------|-------------|
B|--------------|-------6--10-|-------------|-------------|-------------|-------------|
G|--------------|-------------|-------------|-------------|-------------|-------------|
D|--------------|-------------|-8-----------|-(8)-----7-5-|-(5)-7-(7)---|-(7)---------|
A|--------------|-------------|-------------|-------------|-------------|-----8-7-5-3-|
E|--------------|-------------|-------------|-------------|-------------|-------------|


[Verse 5]
similar to 1st Verse, add this part:

 Gtr III
        TP---------------------------------------------------------------|
  Q.    Q.        +Q.  E.  E.  H.            +H      E E   Q H          +H.
e|------10------|-(10)-12--13-|-6-----------|-(6)-----5-3-|-3s5--------|-(5)---------|
B|--------------|-------------|-------------|-------------|------------|-------------|
G|--------------|-------------|-------------|-------------|------------|-------------|
D|--------------|-------------|-------------|-------------|------------|-------------|
A|--------------|-------------|-------------|-------------|------------|-------------|
E|--------------|-------------|-------------|-------------|------------|-------------|



[Chorus]
(similar to previous)


[Outro]

 Gtr I: Chorus Riff
 Gtr II
  E  E  E  +E   E  E     +E   E  E  +E   Q    E  E  E  +E   E  E    +E   E  E  +E   Q
e|---------------------|---------------------|--------------------|---------------------|
B|------15-(15)----15--|-(15)----15-(15)-----|------15-(15)----15-|-(15)----15-(15)-----|
G|---14---------14-----|------14---------14--|---16---------16----|------16---------16--|
D|---------------------|---------------------|--------------------|---------------------|
A|---------------------|---------------------|--------------------|---------------------|
E|---------------------|---------------------|--------------------|---------------------|

  E  E  E  +E   E  E     +E   E  E  +E   Q    S.  T  +Q    +Q.     Q
e|---------------------|---------------------|--------------------|-------------|
B|------14-(14)----14--|-(14)----14-(14)-----|----15-(15)--(15)---|-3-----------|
G|---14---------14-----|------14---------14--|--------------------|-4-----------|
D|---------------------|---------------------|--------------------|-0-----------|
A|---------------------|---------------------|--------------------|-x-----------|
E|---------------------|---------------------|--------------------|-3-----------|


Lyrics


[Verse 1]

     Drag him out your window 
     Dragging out your dead 
     Singing I miss you 
     Snakes & ladders flip the lid out pops
   the cracker smacks you in the head knifes
   you in the neck kicks you in the teeth steel
   toe caps takes all your credit cards step up
   get the gunge
     Get the eggs get the flan in the face the
   flan in the face the flan in the face
     Dance you fucker dance you fucker don't
   you dare
     Don't you dare don't you
     Flan in the face
     Take it with the love it's given take it with
   a pinch of salt take it to the taxman
     Let me back let me back I promise to be
   good don't look in the mirror at the face
   you don't recognize
     Help me, call the doctor, put me inside
   put me inside put me inside put me inside 
   put me inside


[Chorus 1]

     I keep the wolf from the door but he
   calls me up calls me on the phone tells me
   all the ways that he's gonna mess me up
     Steal all my children if I don't pay the
   ransom & I'll never see him again if I
   squeal to the cops...


[Verse 2]

     Walking like giant cranes & with my X
   ray eyes i strip you naked in a
     Tight little world & are you on the list?
     Stepford wives who are we to complain?
     Investments & dealers. Investments &
   dealers
     Cold wives & mistresses.
     Cold wives & sunday papers city boys
   in First Class don't know we're born just
   know
     Someone else is gonna come & clean it up
     Born & raised for the job
   Someone always does I wish you'd get up
   go over get up go over & turn your tape off

************************************

| x    Dead note
| (n)  Ghost note
| h    Hammer-on
| s    slide

************************************
Suggest correction
comments
print report bad tab
13 comments total. Showing first comments.
0 reply
Wolfer0624 31 wrote on November 17 2007, 12:52 am

This is VERY good man. I haven't gotten all the way through, but after going on and off playing this song with ur tabs,
I can say there the best :) Keep it up!

0 reply
Root Beer 187 wrote on March 30 2008, 12:15 am

1 word: EXCELLENT.

0 reply
tbarrettl 261 wrote on March 30 2008, 01:01 pm

1 Statement 6 Stars

guest
You may want to rate the tab now too:
select rating
Please do not post tabs as comments. Select "correction" instead!