Oops, an error
Loading. Please wait.

Airbag Tab

version 1
version 1

Whole song

Interactive

84,232 views 81 this week
2 commentsread comments
1 2 3 4 5
accurate
x 12
add to favorites
launch autoscroll
font size
0
reset
how to read this tab
guitar tuner
Autoscroll
slow
fast
+/-
esc
set tempo
stop
Help us to improve Ultimate-Guitar.com Take our survey!
×
AIRBAG


  [Intro]
e|---|------------|-------------|-----------|-------------|
B|---|------------|-------------|-----------|-------------|
G|---|------------|-------------|-----------|-------------|
D|---|--3--/10--9-|-11----7-----|-3--/10--9-|-7-----11--14|
A|---|------------|-------------|-----------|-------------|
E|-0-|--1--/8---7-|-9-----5---0-|-1--/8---7-|-5-----9---12|

e|--------------|-------------|--------------|
B|--------------|-------------|--------------|
G|--------------|-------------|--------------|
D|-15-----10--9-|-11----7-----|-3--/10--9----|
A|--------------|-------------|--------------|
E|-13-----8---7-|-9-----5---0-|-1--/8---7----|

e|--0--|---|
B|--0--|---|
G|--6--|---|
D|--7--|---|
A|--0--|---|
E|-----|---|


 [Verse]
e|--0--|--0--|--0--|--0--|
B|--0--|--0--|--0--|--0--|
G|--6--|--8--|.-7-.|.-6-.|
D|--7--|--7--|.-7-.|.-7-.|
A|--0--|--0--|--0--|--0--|  x 2
E|-----|-----|-----|-----|


 [Chorus]
e|--0--|-----|--0--|--0--|
B|--0--|-----|--0--|--0--|
G|--2--|--2--|.-1-.|.-6-.|
D|--1--|--4--|.-2-.|.-7-.|
A|--2--|--4--|--2--|--0--|  x 2
E|-----|--2--|--0--|-----|

(repeat verse)

(repeat chorus)


 [Solo]
e|----------------|----------------|
B|-10t-----9t-----|-7t-----9t------|
G|----------------|----------------|
D|----------------|----------------|
A|----------------|----------------|
E|----------------|----------------|

e|----------------|----------------|
B|--6t------------|----------------|
G|----------------|----------------|
D|----------------|----------------|
A|----------------|----------------|
E|----------------|----------------|

e|------------------------|-----------------------|
B|-6--5---------------5---|-6--5------------------|
G|-------7--6----6>7------|-------7--6------------|
D|-----------------------7|-----------------------|
A|------------------------|-----------------------|
E|------------------------|-----------------------|

(repeat chorus)

**************************************************

/= slide from a note to another
t= tremolo picking
>= hammer the second note

**************************************************
Suggest correction
comments
print report bad tab
2 comments total.
+3 reply
paranois 10 wrote on January 30 2003, 12:00 am

dude, whats with playing octaves...use single notes on the E string!!!

+1 reply
TheVinesRule 860 wrote on August 11 2004, 12:00 am

the solo is near enough

guest
You may want to rate the tab now too:
select rating
Please do not post tabs as comments. Select "correction" instead!