Oops, an error
Loading. Please wait.

Airbag Tab

version 3
version 3

Whole song

Interactive

27,406 views 192 this week
no commentswrite comment
1 2 3 4 5
x 10
add to favorites
launch autoscroll
font size
0
reset
how to read this tab
guitar tuner
Autoscroll
slow
fast
+/-
esc
set tempo
stop
Help us to improve Ultimate-Guitar.com Take our survey!
×
"Airbag"
Words and Music by:
Colin Greenwood, Jonathan Greenwood, Edward O'Brien, Philip Selway & Thomas Yorke

Transcribed by: Leatherface74

GUITARS
 
Gtr. 1 Elec. w/dist.: Jonny.                                                             
Gtr. 2 Overdriven Elec.: Thom.                                                           
Gtr. 3 Elec. w/clean tone: Ed, his fills are placed at the end of the tab because they   
                           don't fit.                                                    
Gtr. 4 Elec. w/clean tone: Jonny.                                                        
Gtr. 5 Acoustic overdub: Only appears in one bar and is pointless, but it is there so    
                         I had to transcribe it. Likely played by Thom.                   
 


  Gtr. 1 (Jonny)(w/dist.)          *
 E||-------------------|--------------------------|--------------------------|
 B||-------------------|--------------------------|--------------------------|
 G||-------------------|--------------------------|--------------------------|
 D||-------------------|--------------------------|--------------------------|
 A||-------------------|--------------------------|--------------------------|
 E||----------------0--|--1////////8--------7-----|--9////////5\\\\\\\\0-----|
 
                                  |------------------------------------------|
                                   *Feedback likely caused by finger 
                                   sliding too close to fret.        
                                   
                                                                  
  Gtr. 2 (Thom)(w/overdriven tone)
 E||-------------------|-------0--------0------0--|-------0--------0------0--|
 B||-------------------|--------------------------|--------------------------|
 G||-------------------|-----2--------2-----------|-----2--------2-----------|
 D||-------------------|--3-----------------2-----|--2-----------------2-----|
 A||-------------------|-----------3--------------|-----------0--------------|
 E||-------------------|--------------------------|--------------------------|




  Gtr. 1                     Gtr. 3 plays Fill 1 (4 times)
 e|--------------------------|--------------------------|--------------------------|
 B|--------------------------|--------------------------|--------------------------|
 G|--------------------------|--------------------------|--------------------------|
 D|--------------------------|--------------------------|--------------------------|
 A|--------------------------|--------------------------|--------------------------|
 E|--1////////8--------7-----|--5////////9////////12----|--13\\\\\\\8--------7-----|
 
  Gtr. 2
 e|-------0--------0------0--|-------0--------0------0--|-------0--------0------0--|
 B|--------------------------|--------------------------|--------------------------|
 G|-----2--------2-----------|-----2--------2-----------|-----2--------2-----------|
 D|--3-----------------2-----|--2-----------------2-----|--3-----------------2-----|
 A|-----------3--------------|-----------0--------------|-----------3--------------|
 E|--------------------------|--------------------------|--------------------------|




  Gtr. 1
 e|--------------------------|--------------------------|--0---------------------------|
 B|--------------------------|--------------------------|--0---------------------------|
 G|--------------------------|--------------------------|--6---------------------------|
 D|--------------------------|--------------------------|--7---------------------------|
 A|--------------------------|--------------------------|--7---------------------------|
 E|--9\\\\\\\\5\\\\\\\\0-----|--1////////8--------7-----|--5---------------------------|
 
  Gtr. 2
 e|-------0--------0------0--|-------0--------0------0--|------------------------------|
 B|--------------------------|--------------------------|-----0---0----0--0----------0-|
 G|-----2--------2-----------|-----2--------2-----------|-----2---2----2--2----2-2-2-2-|
 D|--2-----------------2-----|--3-----------------2-----|--2--2---2----2--2------2-2-2-|
 A|-----------0--------------|-----------3--------------|--0----0----0-0--0-0------0-0-|
 E|--------------------------|--------------------------|------------------------------|




[1st Verse]

(00:24)

                          In the next                 world war
  Gtr. 2
 e|------------------------------|------------------------------|
 B|--0-----------0---------0---0-|------------------------------|
 G|--2--2-2-2--2-2--2-2--2-2-2-2-|--6--6-6-6--6-6--6-6--6-6-6-6-|
 D|--2--2-2-2--2-2--2-2--2-2-2-2-|--7--7-7-7--7-7--7-7--7-7-7-7-|
 A|--0--0-0-0--0-0--0-0--0-0-0-0-|--0--0-0-0--0-0--0-0--0-0-0-0-|
 E|------------------------------|------------------------------|




                                    in a jack-knifed juggernaut
  Gtr. 2
 e|------------------------------|------------------------------|
 B|------------------------------|------------------------------|
 G|--8--8-8-8--8-8--8-8----------|--7--7-7-7--7-7--7-7----------|
 D|--7--7-7-7--7-7--7-7--2-4-2-4-|--7--7-7-7--7-7--7-7--2-4-2-4-|
 A|--0--0-0-0--0-0--0-0--0-0-0-0-|--0--0-0-0--0-0--0-0--0-0-0-0-|
 E|------------------------------|------------------------------|




                         I am born again
  Gtr. 2
 e|-------------------------------|-------------------------------|
 B|-------------------------------|-------------------------------|
 G|--7--7-7-7--7-7--7-7-7---------|--9-7-6-7-6--6-6--6-6--6-6-6-6-|
 D|--7--7-7-7--7-7--7-7-7-2-4-2-4-|--7-7-7-7-7--7-7--7-7--7-7-7-7-|
 A|--0--0-0-0--0-0--0-0-0-0-0-0-0-|--0-0-0-0-0--0-0--0-0--0-0-0-0-|
 E|-------------------------------|-------------------------------|




                        In the Ne-------------------------on
  Gtr. 2
  Gtr. 3 plays fill 2
 |-------------------------------|------------------------------|
 |-------------------------------|------------------------------|
 |--9-7-6-7-6--6-6--6-6--6-6-6-6-|--6--6-6-6--6-6--6-6--6-6-6-6-|
 |--7-7-7-7-7--7-7--7-7--7-7-7-7-|--7--7-7-7--7-7--7-7--7-7-7-7-|
 |--0-0-0-0-0--0-0--0-0--0-0-0-0-|--0--0-0-0--0-0--0-0--0-0-0-0-|
 |-------------------------------|------------------------------|




        sign,                    scrolling up and down
  Gtr. 2
 e|------------------------------|------------------------------|
 B|------------------------------|------------------------------|
 G|--8--8-8-8--8-8--8-8----------|--7--7-7-7--7-7--7-7----------|
 D|--7--7-7-7--7-7--7-7--2-4-2-4-|--7--7-7-7--7-7--7-7--2-4-2-4-|
 A|--0--0-0-0--0-0--0-0--0-0-0-0-|--0--0-0-0--0-0--0-0--0-0-0-0-|
 E|------------------------------|------------------------------|




                   I am born a---gain
  Gtr. 2                          Gtr.3 plays fill 2
 |-------------------------------|-------------------------------|
 |-------------------------------|-------------------------------|
 |--7--7-7-7--7-7--7-7-7---------|--9-7-6-7-6--6-6--6-6--6-6-6-6-|
 |--7--7-7-7--7-7--7-7-7-2-4-2-4-|--7-7-7-7-7--7-7--7-7--7-7-7-7-|
 |--0--0-0-0--0-0--0-0-0-0-0-0-0-|--0-0-0-0-0--0-0--0-0--0-0-0-0-|
 |-------------------------------|-------------------------------|




                       In an Interstellar burst
  Gtr. 2
 e|-------------------------------|------------------------------|
 B|-------------------------------|------------------------------|
 G|--9-7-6-7-6--6-6--6-6--6-6-6-6-|--2--2-2-2--2-2--2-2--2-2-2-2-|
 D|--7-7-7-7-7--7-7--7-7--7-7-7-7-|--1--1-1-1--1-1--1-1--1-1-1-1-|
 A|--0-0-0-0-0--0-0--0-0--0-0-0-0-|--2--2-2-2--2-2--2-2--2-2-2-2-|
 E|-------------------------------|------------------------------|




                      I am  back to save the un-----------
  Gtr. 2
 |----------------------------|----------------------------|
 |----------------------------|----------------------------|
 |--2--2--2--2-2--2-2--2--2-2-|--2--2--2--2-2--2-2--2--2-2-|
 |--4--4--4--4-4--4-4--4--4-4-|--2--2--2--2-2--2-2--2--2-2-|
 |--4--4--4--4-4--4-4--4--4-4-|--2--2--2--2-2--2-2--2--2-2-|
 |--2--2--2--2-2--2-2--2--2-2-|--0--0--0--0-0--0-0--0--0-0-|




  -------------i-------verse
  Gtr. 2
 e|----------------------------|--------------0---------0-----|
 B|----------------------------|--------------2---------2---2-|
 G|--1--1--1--1-1--1-1--1--1-1-|--2--2-2-2--2-2--2-2--2-2-2-2-|
 D|--2--2--2--2-2--2-2--2--2-2-|--2--2-2-2--2-2--2-2--2-2-2-2-|
 A|--2--2--2--2-2--2-2--2--2-2-|--0--0-0-0--0-0--0-0--0-0-0-0-|
 E|--0--0--0--0-0--0-0--0--0-0-|------------------------------|




  Gtr. 2                         Gtr. 3 plays fill 1 five times
 e|--------------0---------------|--------------0---------------|
 B|--------------2---------2---2-|--3-----------3---------3---3-|
 G|--2--2-2-2--2-2--2-2--2-2-2-2-|--2--2-2-2--2-2--2-2--2-2-2-2-|
 D|--2--2-2-2--2-2--2-2--2-2-2-2-|--3--3-3-3--3-3--3-3--3-3-3-3-|
 A|--0--0-0-0--0-0--0-0--0-0-0-0-|--0--0-0-0--0-0--0-0--0-0-0-0-|
 E|------------------------------|------------------------------|
 
  Gtr. 1
 e|------------------------------|------------------------------|
 B|------------------------------|------------------------------|
 G|------------------------------|------------------------------|
 D|------------------------------|------------------------------|
 A|------------------------------|------------------------------|
 E|------------------------------|--13\\\\\\\\\8----------7-----|




  Gtr. 2
 e|--------------0---------------|--------------0---------------|
 B|--------------2---------2---2-|--------------3---------3---3-|
 G|--2--2-2-2--2-2--2-2--2-2-2-2-|--2--2-2-2--2-2--2-2--2-2-2-2-|
 D|--2--2-2-2--2-2--2-2--2-2-2-2-|--3--3-3-3--3-3--3-3--3-3-3-3-|
 A|--0--0-0-0--0-0--0-0--0-0-0-0-|--0--0-0-0--0-0--0-0--0-0-0-0-|
 E|------------------------------|------------------------------|
 
  Gtr. 1
 |------------------------------|------------------------------|
 |------------------------------|------------------------------|
 |------------------------------|------------------------------|
 |------------------------------|------------------------------|
 |------------------------------|------------------------------|
 |--9\\\\\\\\\\5\\\\\\\\\\0-----|--1\\\\\\\\\\8----------7-----|
 
  Gtr. 4 (w/clean tone)
   T.P.--------------------------------------------------------|
 e|------------------------------|------------------------------|
 B|--10--------------------------|------------------------------|
 G|------------------------------|------------------------------|
 D|------------------------------|------------------------------|
 A|------------------------------|------------------------------|
 E|------------------------------|------------------------------|




                                                      In a deep
  Gtr. 2
 e|--------------0---------------|--------------0---------------|
 B|--------------2---------2---2-|--------------3---------3---3-|
 G|--2--2-2-2--2-2--2-2--2-2-2-2-|--2--2-2-2--2-2--2-2--2-2-2-2-|
 D|--2--2-2-2--2-2--2-2--2-2-2-2-|--3--3-3-3--3-3--3-3--3-3-3-3-|
 A|--0--0-0-0--0-0--0-0--0-0-0-0-|--0--0-0-0--0-0--0-0--0-0-0-0-|
 E|------------------------------|------------------------------|
 
  Gtr. 1
 e|------------------------------|------------------------------|
 B|------------------------------|------------------------------|
 G|------------------------------|------------------------------|
 D|------------------------------|------------------------------|
 A|------------------------------|------------------------------|
 E|--5//////////9/////////12-----|--13\\\\\\\\\8----------7-----|
 
  Gtr. 4
   T.P.--------------------------------------------------------|
 e|------------------------------|------------------------------|
 B|--10--------------------------|------------------------------|
 G|------------------------------|------------------------------|
 D|------------------------------|------------------------------|
 A|------------------------------|------------------------------|
 E|------------------------------|------------------------------|




[2nd Verse]

(1:33)

                           deep  sleep
  Gtr. 2
 e|------------------------------|------------------------------|
 B|------------------------------|------------------------------|
 G|--6--6-6-6--6-6--6-6--6-6-6-6-|--8--8-8-8--8-8--8-8--8-8-8-8-|
 D|--7--7-7-7--7-7--7-7--7-7-7-7-|--7--7-7-7--7-7--7-7--7-7-7-7-|
 A|--0--0-0-0--0-0--0-0--0-0-0-0-|--0--0-0-0--0-0--0-0--0-0-0-0-|
 E|------------------------------|------------------------------|
 
  Gtr. 1
   eT.P.--------------------------------------------------------|
 |-B-----------------------------|------------------------------|
 |-G-10------------9-------------|--7------------9--------------|
 |-D-----------------------------|------------------------------|
 |-A-----------------------------|------------------------------|
 |-E-----------------------------|------------------------------|
 |------------------------------|------------------------------|




        of     the   innocent                        I am born
  Gtr. 2
 e|------------------------------|-------------------------------|
 B|------------------------------|-------------------------------|
 G|--7--7-7-7--7-7--7-7--7-7-7-7-|--7--7-7-7--7-7--7-7-7-7-7-7-7-|
 D|--7--7-7-7--7-7--7-7--7-7-7-7-|--7--7-7-7--7-7--7-7-7-7-7-7-7-|
 A|--0--0-0-0--0-0--0-0--0-0-0-0-|--0--0-0-0--0-0--0-0-0-0-0-0-0-|
 E|------------------------------|-------------------------------|
 
  Gtr. 1
   T.P.-------------------------------------------------------|
 e|------------------------------|-------------------------------|
 B|--6---------------------------|--3----------------------------|
 G|------------------------------|-------------------------------|
 D|------------------------------|-------------------------------|
 A|------------------------------|-------------------------------|
 E|------------------------------|-------------------------------|

  again                                                 In a fast
  Gtr. 2
 e|-------------------------------|-------------------------------|
 B|-------------------------------|-------------------------------|
 G|--6-6-6-6-6--6-6--6-6--6-6-6-6-|--6-6-6-6-6--6-6--6-6--6-6-6-6-|
 D|--7-7-7-7-7--7-7--7-7--7-7-7-7-|--7-7-7-7-7--7-7--7-7--7-7-7-7-|
 A|--0-0-0-0-0--0-0--0-0--0-0-0-0-|--0-0-0-0-0--0-0--0-0--0-0-0-0-|
 E|-------------------------------|-------------------------------|
 
  Gtr. 1
  T.P.---------------------------------------------------------|
 e|-------------------------------|-------------------------------|
 B|--6---5---3---2----------------|--6---5---3---2----------------|
 G|-------------------------------|-------------------------------|
 D|-------------------------------|-------------------------------|
 A|-------------------------------|-------------------------------|
 E|-------------------------------|-------------------------------|



                        German    car                 I'm amazed
  Gtr. 2
 e|------------------------------|------------------------------|
 B|------------------------------|------------------------------|
 G|--6--6-6-6--6-6--6-6--6-6-6-6-|--8--8-8-8--8-8--8-8--8-8-8-8-|
 D|--7--7-7-7--7-7--7-7--7-7-7-7-|--7--7-7-7--7-7--7-7--7-7-7-7-|
 A|--0--0-0-0--0-0--0-0--0-0-0-0-|--0--0-0-0--0-0--0-0--0-0-0-0-|
 E|------------------------------|------------------------------|
 
  Gtr. 1
  eT.P.-----------------------------------------------------------|
 |B------------------------------|--------------------------------|
 |G--10------------9-------------|--7------------9----------------|
 |D------------------------------|--------------------------------|
 |A------------------------------|--------------------------------|
 |E------------------------------|--------------------------------|
 |------------------------------|--------------------------------|



   that I survived                          an airbag saved my
  Gtr. 2
 |------------------------------|-------------------------------|
 |------------------------------|-------------------------------|
 |--7--7-7-7--7-7--7-7--7-7-7-7-|--7--7-7-7--7-7--7-7-7-7-7-7-7-|
 |--7--7-7-7--7-7--7-7--7-7-7-7-|--7--7-7-7--7-7--7-7-7-7-7-7-7-|
 |--0--0-0-0--0-0--0-0--0-0-0-0-|--0--0-0-0--0-0--0-0-0-0-0-0-0-|
 |------------------------------|-------------------------------|
 
  Gtr. 1
  T.P.-------------------------------------------------------|
 e|----------------8-------------|--7-------------5--------------|
 B|--6---------------------------|-------------------------------|
 G|------------------------------|-------------------------------|
 D|------------------------------|-------------------------------|
 A|------------------------------|-------------------------------|
 E|------------------------------|-------------------------------|



  life                                                 In an in-
  Gtr. 2
 e|-------------------------------|-------------------------------|
 B|-------------------------------|-------------------------------|
 G|--6-6-6-6-6--6-6--6-6--6-6-6-6-|--6-6-6-6-6--6-6--6-6--6-6-6-6-|
 D|--7-7-7-7-7--7-7--7-7--7-7-7-7-|--7-7-7-7-7--7-7--7-7--7-7-7-7-|
 A|--0-0-0-0-0--0-0--0-0--0-0-0-0-|--0-0-0-0-0--0-0--0-0--0-0-0-0-|
 E|-------------------------------|-------------------------------|
 
  Gtr. 1
  T.P.-----------------------------------------------------------|
 e|-------------------------------|-------------------------------|
 B|--6---5---3---2----------------|--6---5---3---2----------------|
 G|-------------------------------|-------------------------------|
 D|-------------------------------|-------------------------------|
 A|-------------------------------|-------------------------------|
 E|-------------------------------|-------------------------------|



[2nd Chorus]

(2:07)

  -stellar burst                                    I am back
  Gtr. 2
 e|------------------------------|----------------------------|
 B|------------------------------|----------------------------|
 G|--2--2-2-2--2-2--2-2--2-2-2-2-|--2--2--2--2-2--2-2--2--2-2-|
 D|--1--1-1-1--1-1--1-1--1-1-1-1-|--4--4--4--4-4--4-4--4--4-4-|
 A|--2--2-2-2--2-2--2-2--2-2-2-2-|--4--4--4--4-4--4-4--4--4-4-|
 E|------------------------------|--2--2--2--2-2--2-2--2--2-2-|



  to save the un--------------i-----------------verse
  Gtr. 2
 e|----------------------------|----------------------------|
 B|----------------------------|----------------------------|
 G|--2--2--2--2-2--2-2--2--2-2-|--1--1--1--1-1--1-1--1--1-1-|
 D|--2--2--2--2-2--2-2--2--2-2-|--2--2--2--2-2--2-2--2--2-2-|
 A|--2--2--2--2-2--2-2--2--2-2-|--2--2--2--2-2--2-2--2--2-2-|
 E|--0--0--0--0-0--0-0--0--0-0-|--0--0--0--0-0--0-0--0--0-0-|


[1st Interlude]

(2:18)

  Gtr. 2
 e|--------------------------|-------------------------|
 B|--0-----------------------|-------------------------|
 G|--2-----------------------|-------------------------|
 D|--2-----------------------|-------------------------|
 A|--0-----------------------|-------------------------|
 E|--------------------------|-------------------------|
 
  Gtr. 3 (w/envelope filter) (Left Channel)
 e|--------------------------|-----------------------5-|
 B|--------------------------|-------------------------|
 G|--------------------------|-------------------------|
 D|--------------------------|-------------------------|
 A|--------------------------|-------------------------|
 E|--------------------------|-------------------------|
 
  Gtr. 4 (w/clean tone) (Right channel)
  eT.P.------------------------------------------------|
 |B--------------------------|-------------------------|
 |G--10----------------------|-------------------------|
 |D--------------------------|-------------------------|
 |A--------------------------|-------------------------|
 |E--------------------------|-------------------------|
 |--------------------------|-------------------------|




  Gtr. 3
 e|--5----5----4-------4--|-------7-----4--------|
 B|-----------------5-----|--7----7--7-----------|
 G|-----------------------|----------------------|
 D|-----------------------|----------------------|
 A|-----------------------|----------------------|
 E|-----------------------|----------------------|
 
  Gtr. 4
   T.P.-----------------------------------------|
 e|-----------------------|----------------------|
 B|--10--------9----------|--7----------9--------|
 G|-----------------------|----------------------|
 D|-----------------------|----------------------|
 A|-----------------------|----------------------|
 E|-----------------------|----------------------|



  Gtr. 3              .5
 e|------------5--7----7b-|----7----5-----------|------------------------0-|
 B|--6------6-------------|----6---------6------|--6\5-5\3-3\2-2------2/3--|
 G|-----------------------|---------------------|--------------------------|
 D|-----------------------|---------------------|--------------------------|
 A|-----------------------|---------------------|--------------------------|
 E|-----------------------|---------------------|--------------------------|
 
  Gtr. 4
   T.P.----------------------------------------------------------------|
 e|------------5--7----8--|----7----5-----------|--------------------------|
 B|--6--------------------|--------------6---3--|--6---5---3---2-----------|
 G|-----------------------|---------------------|--------------------------|
 D|-----------------------|---------------------|--------------------------|
 A|-----------------------|---------------------|--------------------------|
 E|-----------------------|---------------------|--------------------------|



  Gtr. 3
 e|--------------------------|--5----5--5--4---(5)(5)--|
 B|--6\5-5\3-3\2-2-----2h3p2-|-------5--5--------------|
 G|-------------------2------|-------------------------|
 D|--------------------------|-------------------------|
 A|--------------------------|-------------------------|
 E|--------------------------|-------------------------|
 
  Gtr. 4
  T.P.------------------------------------------------|
 e|--------------------------|-------------------------|
 B|--6---5---3---2-----------|--10---------9-----------|
 G|--------------------------|-------------------------|
 D|--------------------------|-------------------------|
 A|--------------------------|-------------------------|
 E|--------------------------|-------------------------|
 
  Gtr. 5 (Acoustic overdub) (Left channel)
 e|--------------------------|-------------------------|
 B|-----------x-x---x--x-----|-------------------------|
 G|-----------x-x---x--x-----|-------------------------|
 D|-----------x-x---x--x-----|-------------------------|
 A|-----------x-x---x--x-----|-------------------------|
 E|-----------x-x---x--x-----|-------------------------|




  gtr. 3                                          .5
 e|--------------0--4--4----|----------------5--7--7b-|-----7----5-----------|
 B|--7--7--7--7--7----------|--6----6--6--6--5--------|--------------6-------|
 G|--------------x----------|-------5--5--5-----------|----------------------|
 D|-------------------------|-------------------------|----------------------|
 A|-------------------------|-------------------------|----------------------|
 E|-------------------------|-------------------------|----------------------|
 
  Gtr. 4
  T.P.--------------------------------------------------------------------|
 e|-------------------------|--8------7------5-----7--|--8--7----5-----------|
 B|--7-----------9----------|-------------------------|--------------6----8--|
 G|-------------------------|-------------------------|----------------------|
 D|-------------------------|-------------------------|----------------------|
 A|-------------------------|-------------------------|----------------------|
 E|-------------------------|-------------------------|----------------------|



                                                      In   an  Interstellar bu-
  Gtr. 3
 e|-------------------------|----------------------|---------------------------|
 B|--6\5-5\3-3\2-2----2h3p2-|--6\5-5\3-3\2-2-------|---------------------------|
 G|------------------2------|----------------------|---------------------------|
 D|-------------------------|----------------------|---------------------------|
 A|-------------------------|----------------------|---------------------------|
 E|-------------------------|----------------------|---------------------------|
 
  Gtr. 4
  T.P.--------------------------------------------------------------------------|
 e|-------------------------|----------------------|-----------------------------|
 B|--6---5---3---2----------|--6---5---3---2-------|-----------------------------|
 G|-------------------------|----------------------|-----------------------------|
 D|-------------------------|----------------------|-----------------------------|
 A|-------------------------|----------------------|-----------------------------|
 E|-------------------------|----------------------|-----------------------------|
 
  Gtr. 2
 e|-------------------------|----------------------|---------------------------|
 B|-------------------------|----------------------|---------------------------|
 G|-------------------------|----------------------|--2-2-2-2-2-2--2-2-2-2-2-2-|
 D|-------------------------|----------------------|--1-1-1-1-1-1--1-1-1-1-1-1-|
 A|-------------------------|----------------------|--2-2-2-2-2-2--2-2-2-2-2-2-|
 E|-------------------------|----------------------|---------------------------|


[3rd Chorus]

(3:00)


  -urst              I am back to save the uni-------------
  Gtr. 2
 e|----------------------------|----------------------------|
 B|----------------------------|----------------------------|
 G|--2--2--2--2-2--2-2--2--2-2-|--2--2--2--2-2--2-2--2--2-2-|
 D|--4--4--4--4-4--4-4--4--4-4-|--2--2--2--2-2--2-2--2--2-2-|
 A|--4--4--4--4-4--4-4--4--4-4-|--2--2--2--2-2--2-2--2--2-2-|
 E|--2--2--2--2-2--2-2--2--2-2-|--0--0--0--0-0--0-0--0--0-0-|



   -----------------verse
  Gtr. 2
 e|----------------------------|--------------0---------0-----|
 B|----------------------------|--------------2---------2---2-|
 G|--1--1--1--1-1--1-1--1--1-1-|--2--2-2-2--2-2--2-2--2-2-2-2-|
 D|--2--2--2--2-2--2-2--2--2-2-|--2--2-2-2--2-2--2-2--2-2-2-2-|
 A|--2--2--2--2-2--2-2--2--2-2-|--0--0-0-0--0-0--0-0--0-0-0-0-|
 E|--0--0--0--0-0--0-0--0--0-0-|------------------------------|




                        In an interstellar burst
  Gtr. 2
 e|--------------0---------------|------------------------------|
 B|--------------2---------2---2-|------------------------------|
 G|--2--2-2-2--2-2--2-2--2-2-2-2-|--2--2-2-2--2-2--2-2--2-2-2-2-|
 D|--2--2-2-2--2-2--2-2--2-2-2-2-|--1--1-1-1--1-1--1-1--1-1-1-1-|
 A|--0--0-0-0--0-0--0-0--0-0-0-0-|--2--2-2-2--2-2--2-2--2-2-2-2-|
 E|------------------------------|------------------------------|




                     I am back to save the uni------------
  Gtr. 2
 e|----------------------------|----------------------------|
 B|----------------------------|----------------------------|
 G|--2--2--2--2-2--2-2--2--2-2-|--2--2--2--2-2--2-2--2--2-2-|
 D|--4--4--4--4-4--4-4--4--4-4-|--2--2--2--2-2--2-2--2--2-2-|
 A|--4--4--4--4-4--4-4--4--4-4-|--2--2--2--2-2--2-2--2--2-2-|
 E|--2--2--2--2-2--2-2--2--2-2-|--0--0--0--0-0--0-0--0--0-0-|




  -----------------verse
  Gtr. 2
 e|----------------------------|--0----------------|
 B|----------------------------|--2----------------|
 G|--1--1--1--1-1--1-1--1--1-1-|--2----------------|
 D|--2--2--2--2-2--2-2--2--2-2-|--2----------------|
 A|--2--2--2--2-2--2-2--2--2-2-|--0----------------|
 E|--0--0--0--0-0--0-0--0--0-0-|-------------------|


[2nd Interlude]

(3:30)


  Gtr. 4 (w/heavy reverb)
                  <      <     *
 e|---------------0--|---0----(0)------------------|-----------------------|
 B|------------------|--------------13//8\\\18--x--|-(x)-(x)-8/13\8\7/20---|
 G|------------------|---------- ---x-----------x--|-(x)-(x)---------------|
 D|------------------|--------------x-----------x--|-(x)-(x)---------------|
 A|------------------|--------------------------x--|-(x)-(x)---------------|
 E|------------------|-----------------------------|-----------------------|
                            |---------------------------------------------|
                            |*Note: Turn Sampling effects   |
                            | pedal on. Notes in parenthesis|
                            | are not picked.               |
                            |-------------------------------|
 
  Gtr. 5 (w/mutronics mutator envelope filter)
 e|------------------|-----------------------------|---------------------|
 B|------------------|--x--x----x--x----x--x-------|---------------------|
 G|------------------|--x--x----x--x----x--x-------|---------------------|
 D|------------------|--x--x----x--x----x--x-------|---------------------|
 A|------------------|--x--x----x--x----x--x-------|---------------------|
 E|------------------|-----------------------------|---------------------|




  Gtr. 4                      T.P.------------------------------|
 e|---------------------|------------------|---------------------|
 B|-(x)-(x)-(x)---------|-------x-6--5--3--|--2------------------|
 G|-(x)-(x)-(x)---------|-------x----------|---------------------|
 D|-(x)-(x)-(x)---------|-------x----------|---------------------|
 A|-(x)-(x)-(x)---------|------------------|---------------------|
 E|---------------------|------------------|---------------------|
 
   Gtr. 5      *
 e|---------------------|------------------|---------------------|
 B|-x-x---x-x---x-x-----|------------------|--x-x---x-x---x-x----|
 G|-x-x---x-x---x-x-----|------------------|--x-x---x-x---x-x----|
 D|-x-x---x-x---x-x-----|------------------|--x-x---x-x---x-x----|
 A|-x-x---x-x---x-x-----|------------------|--x-x---x-x---x-x----|
 E|---------------------|------------------|---------------------|
              |-------------------------------------------------|
              |*Note: Use digitech whammy pedal to lower|
              | the pitch of these last muted notes.    |
              |-----------------------------------------|


  eGtr. 4    T.P.---------------------------------------------------|
 |B-------------------|------------5--7--|------5-------------------|
 |G----------6--5--3--|--2---------------|----8----6--8--6--5--3----|
 |D-------------------|------------------|--------------------------|
 |A-------------------|------------------|--------------------------|
 |E-------------------|------------------|--------------------------|
 |-------------------|------------------|--------------------------|
 
  Gtr. 5
 e|---------x---------|------------------|------------------------|
 B|---------x-x---x-x-|--x-x--x-x--x-x---|--x-x-x-x--x-x-x-x-x-x--|
 G|---------x-x-x-x-x-|--x-x--x-x--x-x---|--x-x-x-x--x-x-x-x-x-x--|
 D|-----------x-x-x-x-|--x-x--x-x--x-x---|--x-x-x-x--x-x-x-x-x-x--|
 A|-------------------|--x-x--x-x--x-x---|--x-x-x-x--x-x-x-x-x-x--|
 E|-------------------|------------------|------------------------|



  Gtr. 4                                                   *
 e|--------------------5--|--7----5---------------|-------------------------------|
 B|--2----------2---------|-----8----5--8--5--5---|--5---6--5----x-----/18\-------|
 G|-----2--2--2-----4-----|-----------------------|--------------x----------------|
 D|-----------------------|-----------------------|--------------x----------------|
 A|-----------------------|-----------------------|-------------------------------|
 E|-----------------------|-----------------------|-------------------------------|
                                                      |--------------------------|
                                                      |*Note: Activate sampling|
                                                      | effect on this note.   |
                                                      |------------------------|
  Gtr. 5
 e|-----------------------|-----------------------|-------------------------|
 B|--x-x-x-x-x-x-x-x-x-x--|--x-x-x-x-x-x-x-x-x-x--|--x-x-x-x-x-x-x-x-x-x-x--|
 G|--x-x-x-x-x-x-x-x-x-x--|--x-x-x-x-x-x-x-x-x-x--|--x-x-x-x-x-x-x-x-x-x-x--|
 D|--x-x-x-x-x-x-x-x-x-x--|--x-x-x-x-x-x-x-x-x-x--|--x-x-x-x-x-x-x-x-x-x-x--|
 A|--x-x-x-x-x-x-x-x-x-x--|--x-x-x-x-x-x-x-x-x-x--|--x-x-x-x-x-x-x-x-x-x-x--|
 E|-----------------------|-----------------------|-------------------------|

  Gtr. 4           *
 e|-----------------------|-------------------------|
 B|--5---x---/20\---x-(x)-|-(x)-(x)-(x)-------------|
 G|------x----------x-(x)-|-(x)-(x)-(x)-------------|
 D|-----------------x-(x)-|-(x)-(x)-(x)-------------|
 A|-----------------x-(x)-|-(x)-(x)-(x)-------------|
 E|-----------------------|-------------------------|
                  |--------------------------------|
                  |Note: This muted chord was   |
                  |struck once and the sampling |
                  |effect repeated it.          |
                  |-----------------------------|
  Gtr. 5
 e|-----------------------|-----------------------|
 B|--x-x-x-x-x-x-x-x-x-x--|--x-x-x-x-x-x-x-x-x-x--|
 G|--x-x-x-x-x-x-x-x-x-x--|--x-x-x-x-x-x-x-x-x-x--|
 D|--x-x-x-x-x-x-x-x-x-x--|--x-x-x-x-x-x-x-x-x-x--|
 A|--x-x-x-x-x-x-x-x-x-x--|--x-x-x-x-x-x-x-x-x-x--|
 E|-----------------------|-----------------------|


  Gtr. 1 (w/dist.)       Gtr. 3 plays fill 1 seven times
 e|-------------------------|-----------------------------|
 B|-------------------------|-----------------------------|
 G|-------------------------|-----------------------------|
 D|-------------------------|-----------------------------|
 A|-------------------------|-----------------------------|
 E|---------------------9//////13\\\\\\\\\8---------7-----|
 
  Gtr. 4
 e|-------------------------|-----------------------------|
 B|----/18-18-18-18\--------|-----------------------------|
 G|-----------------x-------|-----------------------------|
 D|-----------------x-------|-----------------------------|
 A|-----------------x-------|-----------------------------|
 E|-------------------------|-----------------------------|


[Outro]

  Gtr. 1
 e|---------------------|---------------------|----------------------|
 B|---------------------|---------------------|----------------------|
 G|---------------------|---------------------|----------------------|
 D|---------------------|---------------------|----------------------|
 A|---------------------|---------------------|----------------------|
 E|--9\\\\\\5\\\\\\0----|--1\\\\\\8------7----|--9\\\\\\5//////12----|

  Gtr. 1                   .5
 e|----------------------|---------------------|---------------------||
 B|----------------------|---------------------|---------------------||
 G|----------------------|---------------------|---------------------||
 D|----------------------|---------------------|---------------------||
 A|----------------------|---------------------|---------------------||
 E|--13\\\\\\8\\\\\\7----|--9br-----5\\\\\\0---|--1//////8------7----||



  Gtr. 1
 e|--0---------------------||
 B|--0---------------------||
 G|--6---------------------||
 D|--7---------------------||
 A|--7---------------------||
 E|--5---------------------||
 
  Gtr. 3
 e|------------------------||
 B|------------------------||
 G|------------------------||
 D|--11--------------------||
 A|------------------------||
 E|------------------------||


  ED'S FILLS

                                                        
    Fill 1                                               
e|-------------------------------------------------|   
B|-------------------------------------------------|   
G|-------------------------------------------------|   
D|--14-12-11-12-11---14-12-11-12-11---14-12-11-12--|   
A|-------------------------------------------------|   
E|-------------------------------------------------|   
                                                        
                                                        
    Fill 2                                              
e|--------------------------------------|              
B|--------------------------------------|              
G|--------------------------------------|              
D|--14-12-11-12-11----------------------|              
A|--------------------------------------|              
E|--------------------------------------|              



************************************

| x    Dead note
| (n)  Ghost note
| h    Hammer-on
| p    Pull-off
| b    Bend
| br   Bend release
| /    Slide up
| \    Slide down

************************************
Suggest correction
comments
print report bad tab
guest
You may want to rate the tab now too:
select rating
Wanna post a correction for this tab? Suggest correction