Oops, an error
Loading. Please wait.

Airbag tab

version 4
version 4

Whole song

Interactive

565 views 6 this week
no commentswrite comment
1 2 3 4 5
2 more votes to show rating
add to favorites
×
Save as Personal and add changes to this tab that will be seen only by you. Learn more ›
×
You can save this tab as Personal to edit and correct it or add notes. All changes will be seen only by you. Learn more »
launch autoscroll
font size
0
reset
how to read this tab
guitar tuner
backing track
0:00
0:00
edit
Autoscroll
slow
fast
+/-
esc
set tempo
stop
-------------------------------------------------------------------------------
                             AIRBAG - Radiohead
-------------------------------------------------------------------------------
Tabbed by:e_b
E-mail:

Tuning: standard


I'm integrating both guitars in this one... just play along to find the rhythm & enjoy!


[Intro]
                                                                   Aadd9
e|----------------|----------------|-------------------|---------------------|
B|----------------|----------------|-------------------|-------------0-------|
G|----------------|----------------|-------------------|-------------6-------|
D|----------------|----------------|-------------------|-------------7-------|
A|----------------|----------------|-------------------|-------------0-------|
E|-0--1/8--7--9\5-|-0--1/8--7\5/9/-|-12/13--8--7--9--5-|-0--1/8--7-----------|


[Riff 1]

e|----------------------------12-10-9-10-9--12-10-9-10-9--12-10-9-10---------|
B|---------------------------------------------------------------------------|
G|---------------------------------------------------------------------------|
D|---------------------------------------------------------------------------| x4
A|---------------------------------------------------------------------------|
E|---------------------------------------------------------------------------|


[Verse 1]

          Aadd9       Asus2b5      Bm7/A                      Bm7/A
e|---------------------------------------------------------------------------|
B|----------0------------0-----------0--------------------------0------------|
G|----------6------------8-----------7--------------------------7------------|
D|-2h4-2h4--7---2h4-2h4--7---2h4-2h4-7-----------------2h4-2h4--7------------|
A|----------0------------0-----------0--------------------------0------------|
E|---------------------------------------------------------------------------|
   In the next    world war     in a jackknifed juggernaut

             Asus2  Bm7/A     Aadd9
e|---------------------------------------------------------------------------|
B|-------------0-----0----0-0---0----0-----0----0-0----0---------------------|
G|-------------9-----7----6h7---6----9-----7----6h7----6---------------------|
D|-------------7-----7----7h7---7----7-----7----7h7----7---------------------|
A|-------------0-----0----0-0---0----0-----0----0-0----0---------------------|
E|---------------------------------------------------------------------------|
   I am born again

          Aadd9       Asus2b5      Bm7/A                      Bm7/A
e|---------------------------------------------------------------------------|
B|----------0------------0-----------0--------------------------0------------|
G|----------6------------8-----------7--------------------------7------------|
D|-2h4-2h4--7---2h4-2h4--7---2h4-2h4-7-----------------2h4-2h4--7------------|
A|----------0------------0-----------0--------------------------0------------|
E|---------------------------------------------------------------------------|
   In the ne-   -on   sign          scrolling up and down

             Asus2  Bm7/A     Aadd9
e|---------------------------------------------------------------------------|
B|-------------0-----0----0-0---0----0-----0----0-0----0---------------------|
G|-------------9-----7----6h7---6----9-----7----6h7----6---------------------|
D|-------------7-----7----7h7---7----7-----7----7h7----7---------------------|
A|-------------0-----0----0-0---0----0-----0----0-0----0---------------------|
E|---------------------------------------------------------------------------|
   I am born again


[Chorus 1]

    B7                 F#m       Esus                E   Aadd9       A
e|---------------------------------------------------------------------------|
B|-----------------------------------------------------------2p0-----2p0-2p0-|
G|--2-------------------2---------2------------------1-----2-2-2--2--2-2-2-2-|
D|--1-------------------4---------2------------------2-----2-2-2--2--2-2-2-2-|
A|--2-------------------4---------2------------------2-----------------------|
E|----------------------2----------------------------------------------------|
  In an interstellar  burst  I am back to save the universe


[Bridge]

e|-------------|----------------|--------------------------------------------|
B|-------------|----------------|--------------------------------------------|
G|-------------|----------------|--------------------------------------------|
D|-3-----------|----------------|--------------------------------------------|
A|-------------|----------------|--------------------------------------------|
E|--/8--7--9\5-|-0--1/8--7\5/9/-|-12/13--8--7--------------------------------|


[Riff 1]

e|----------------------------12-10-9-10-9--12-10-9-10-9--12-10-9-10---------|
B|---------------------------------------------------------------------------|
G|---------------------------------------------------------------------------|
D|---------------------------------------------------------------------------| x4
A|---------------------------------------------------------------------------|
E|---------------------------------------------------------------------------|


[Verse 2]

e|---------------------------------------------------------------------------|
B|----/10~-----9~\7~----7/9~-------------------------------------------------|
G|-6---------------------------------10~-------------------------------------|
D|--------------------------------------------12~----------------------------|
A|---------------------------------------------------------------------------|
E|---------------------------------------------------------------------------|
  In a deep, deep sleep   of the innocent

e|---------------------------------------------------------------------------|
B|---------------------------------------------------------------------------|
G|-------------10-10p9-9p7-7-7\6-6~--10-10p9-9p7-7-7\6~----------------------|
D|---------------------------------------------------------------------------|
A|---------------------------------------------------------------------------|
E|---------------------------------------------------------------------------|
   I am born again

e|---------------------------------------------------------------------------|
B|--/10~------9~\7~----7h9b-----------------------10-12-12h13-12-10~---------|
G|-6------------------------10~----------------10-------------------10~------|
D|---------------------------------------------------------------------------|
A|---------------------------------------------------------------------------|
E|---------------------------------------------------------------------------|
  In a fast German car       I'm amazed that I survived

e|---------------------------------------------------------------------------|
B|---------------------------------------------------------------------------|
G|---------------------10-10p9-9p7-7-7\6-6~----10-10p9-9p7-7-7\6~------------|
D|---------------------------------------------------------------------------|
A|---------------------------------------------------------------------------|
E|---------------------------------------------------------------------------|
   An airbag saved my life


[Chorus 2]

    B7                 F#m       Esus                E   Aadd9
e|---------------------------------------------------------------------------|
B|---------------------------------------------------------------------------|
G|--2-------------------2---------2------------------1-----2-----------------|
D|--1-------------------4---------2------------------2-----2-----------------|
A|--2-------------------4---------2------------------2-----------------------|
E|----------------------2----------------------------------------------------|
  In an interstellar  burst  I am back to save the universe


[Verse 3]
                                                                         (2x)
e|-------------|---------------------|--------------------------|--------------------|
B|-------------|--/10~-9~\7~-7h9b----|----10-12-12h13-12-10~----|--------------------|
G|------------.|-6---------------10~-|-10-------------------10~-|-10-10p9-9p7-7-7\6~-|
D|------------.|---------------------|--------------------------|--------------------|
A|-------------|---------------------|--------------------------|--------------------|
E|-0h3-0h3--5--|---------------------|--------------------------|--------------------|

                                                                 (2x)
e|------------------|----------------------------------|----------------------|
B|--/10~-9~\7~-7h9b-|---13-12-10-10h12-12h13-12-10~----|----------------------|
G|-6----------------|-10---------------------------10~-|-10-10p9-9p7-7-7\6~---|
D|------------------|----------------------------------|----------------------|
A|------------------|----------------------------------|----------------------|
E|------------------|----------------------------------|----------------------|


[Chorus 1]

    B7                 F#m       Esus                E   Aadd9       A
e|---------------------------------------------------------------------------|
B|-----------------------------------------------------------2p0-----2p0-2p0-|
G|--2-------------------2---------2------------------1-----2-2-2--2--2-2-2-2-|
D|--1-------------------4---------2------------------2-----2-2-2--2--2-2-2-2-|
A|--2-------------------4---------2------------------2-----------------------|
E|----------------------2----------------------------------------------------|
  In an interstellar  burst  I am back to save the universe


[Chorus 2]

    B7                 F#m       Esus                E   Aadd9
e|---------------------------------------------------------------------------|
B|---------------------------------------------------------------------------|
G|--2-------------------2---------2------------------1-----2-----------------|
D|--1-------------------4---------2------------------2-----2-----------------|
A|--2-------------------4---------2------------------2-----------------------|
E|----------------------2----------------------------------------------------|
  In an interstellar  burst  I am back to save the universe


[Outro]
                                                (2x)                 (3x)
e|----------------|----------------------|--------------|----------------------------|
B|-5b--------5----|----------------------|--------------|-10-12-----10-----8---------|
G|----------------|----------------------|-10b\9--------|--------12-----10------9----|
D|----------------|----------------------|-------12-11~-|-------------------------11-|
A|----------------|-----------------3----|--------------|----------------------------|
E|----3h5-3h5-3h5-|-3h5-3h5-3h5-5-5--5-3-|--------------|----------------------------|

e|--------------------|-----------------|----------------|--------------------|
B|-10-12-----10-----8-|-----------------|----------------|--------------------|
G|--------12-----10---|-9---------------|----------------|--------------------|
D|--------------------|-----------------|----------------|--------------------|
A|--------------------|-----------------|----------------|--------------------|
E|--------------------|---/13-8--7--9\5-|-0--1/8--7\5/9/-|-12/13--8--7--9--5--|

            Aadd9
e|-----------------|----------------|-------------------|---------------------|
B|------------0----|----------------|-------------------|---------------------|
G|------------6----|----------------|-------------------|---------------------|
D|------------7----|----------------|-------------------|---------------------|
A|------------0----|----------------|-------------------|---------------------|
E|-0--1/8--7-------|----------------|-------------------|---------------------|



************************************

| h  Hammer-on
| p  Pull-off
| b  Bend
| /  Slide up
| \  Slide down
| ~  Vibrato

************************************

            
            
Suggest correction
Creating personal tab
Creating personal tab
You can edit any tab online and save it as your Personal.

You can edit, replace or remove any tab part or add personal notes – all changes will be seen only by you.

Personal tabs can be accessed anytime from any device, even offline.
Learn more »
Give kudos to tab author, rate the tab!
1 2 3 4 5
comments
print report bad tab
guest
You may want to rate the tab now too:
select rating
Wanna post a correction for this tab? Suggest correction