Oops, an error
Loading. Please wait.

All I Need Bass Tab

version 1
version 1

Whole song

Interactive

47,390 views 60 this week
3 commentsread comments
1 2 3 4 5
x 6
add to favorites
launch autoscroll
font size
0
reset
guitar tuner
Autoscroll
slow
fast
+/-
esc
set tempo
stop
Help us to improve Ultimate-Guitar.com Take our survey!
×
Author
Difficulty
All I Need - Radiohead
Tabbed By : Louis Richards AKA MadClownDisease
e-mail: hereticbynature@hotmail.com
Tuning: Standard (BEADG) or (EADG)

I think this is played too low for standard 4-string tuning so I have tabbed it in 
standard (BEADG) or you could use an effect to get you down, or tune down. Whatever you find 
really, I have also tabbed it what sounds an octave too high for you 4-stringers.
How I have sectioned off the phrases may not be musically correct but is easiest to read 
tab.

5-string version:

[Verse] (0:20) x8
G|-------------------|
D|-------------------|
A|------------2----5-|
E|------3-0-----3----|
B|-1-----------------|

[Chorus] (1:15)
G|----------------|
D|----------------|
A|--------------5-| x3
E|------3-0-------|
B|-1--------------|

G|----------------|
D|----------------|
A|------------2-5-|
E|------3-0-------|
B|-1--------------|

G|-------------------|
D|-------------------|
A|------------2----5-|
E|------3-0-----3----|
B|-1-----------------|

[Verse] (1:42) x6
G|-------------------|
D|-------------------|
A|------------2----5-|
E|------3-0-----3----|
B|-1-----------------|

[Chorus] (2:23)
G|----------------|
D|----------------|
A|--------------5-|
E|------3-0-------|
B|-1--------------|

G|----------------|
D|----------------|
A|------------2-5-|
E|------3-0-------|
B|-1--------------|

G|----------------|
D|----------------|
A|--------------5-|
E|------3-0-------|
B|-1--------------|

G|--------------------------|
D|--------------------------|
A|------------2----5--------|
E|------3-0-----3-----------|
B|-1-----------------1------|

[Outro] (2:45)
G|-----------|
D|-----------|
A|--5--------|
E|-----------|
B|----1------|

G|--------------------------------------------------|
D|--------------------------------------------------|
A|--5------------5---------------------2------------| x2
E|--------------------------3-0----------3----------|
B|----1------------1--------------------------------|

G|--------------------------------------------------|
D|--------------------------------------------------|
A|--5------------5----------5----------2----------2-| x2
E|----------------------------0----------3----------|
B|----1------------1--------------------------------|

G|------------------------|
D|------------------------|
A|--5----------5----------|
E|------------------------|
B|----1----------1--------|

4-string version:

[Verse] (0:20) x8
G|------------4----7-|
D|------5-2-----5----|
A|-3-----------------|
E|-------------------|

[Chorus] (1:15)
G|--------------7-|
D|------5-2-------|
A|-3--------------| x3
E|----------------|

G|------------4-7-|
D|------5-2-------|
A|-3--------------|
E|----------------|

G|------------4----7-|
D|------5-2-----5----|
A|-3-----------------|
E|-------------------|

[Verse] (1:42) x6
G|------------4----7-|
D|------5-2-----5----|
A|-3-----------------|
E|-------------------|

[Chorus] (2:23)
G|--------------7-|
D|------5-2-------|
A|-3--------------|
E|----------------|

G|------------4-7-|
D|------5-2-------|
A|-3--------------|
E|----------------|

G|--------------7-|
D|------5-2-------|
A|-3--------------|
E|----------------|

G|------------4----7--------|
D|------5-2-----5-----------|
A|-3-----------------3------|
E|--------------------------|

[Outro] (2:45)
G|--7--------|
D|-----------|
A|----3------|
E|-----------|

G|--7------------7---------------------4------------|
D|--------------------------5-2----------5----------|
A|----3------------3--------------------------------| x2
E|--------------------------------------------------|

G|--7------------7----------7----------4----------4-|
D|----------------------------2----------5----------|
A|----3------------3--------------------------------| x2
E|--------------------------------------------------|

G|--7----------7--------|
D|----------------------|
A|----3----------3------|
E|----------------------|
Suggest correction
comments
print report bad tab
3 comments total.
0 reply
muse_ 60 Dec 01, 2007 03:57 PM

I love how this tab caters for 5-stringers as well. Huzzah!

0 reply
King Mab 10 Jan 26, 2008 07:47 PM

finally, a song for a five string! awesome song as well

+3 reply
kingurth 155 Nov 02, 2008 01:14 AM

It's really low because he doesn't play it on a bass, he plays it on a synth. You could use an octave pedal, but they're kind of expensive and it's easier to use a keyboard.

Alternatively, you could tune the E string down to C and play it on a four-string bass in the proper octave.

If you tune down, the riff goes like this:

G|------------------
D|------------------
A|----------------5-
C|-0---7-4--11-7----

guest
You may want to rate the tab now too:
select rating
Wanna post a correction for this tab? Suggest correction