Oops, an error
Loading. Please wait.

Anyone Can Play Guitar Tab

version 1
version 1

Whole song

Interactive

31,424 views 42 this week
5 commentsread comments
1 2 3 4 5
x 13
add to favorites
launch autoscroll
font size
0
reset
how to read this tab
guitar tuner
×
Best way to learn
"Anyone Can Play Guitar"
Autoscroll
slow
fast
+/-
esc
set tempo
stop
[BEGINNING]
  Em
e|-0--------12-----12-------0----12------------------------------------------------|
B|-0-------------------------------------------------------------------------------|
G|-0-------------------------------------------------------------------------------|
D|-2-------------------------------------------------------------------------------|
A|-2----------------------------------------7---6------10---9-----13---12----------|
E|-0-------------------------------------------------------------------------------|
\w/phaser\

  [Intro]
   Em                     C
e|--0-----------------0/x/8----x-----8------8\x\x\x\x\0----------/8----x-----8---\x--|
B|--0-----------------0/x/8----x-----8------8\x\x\x\x\0----------/8----x-----8---\x--|
G|--0-----------------0/x/9----x-----9------9\x\x\x\x\0----------/9----x-----8---\x--|
D|--2-----------------2/x/10---x----10-----10\x\x\x\x\2----------/10---x----10---\x--|
A|--2-----------------2/x/10---x----10-----10\x\x\x\x\2----------/10---x----10---\x--|
E|--0-----------------0/x/8----x-----8------8\x\x\x\x\0----------/8----x-----8---\x--|
              slide up                  slide down          slide up     slide down

[Verse]
 Em                                        C           Em
e|--0----------------------------------0/x/8-------8\x\0-------------------------------------------0/x/8---|
B|--0----------------------------------0/x/8-------8\x\0-------------------------------------------0/x/8---|
G|--0----------------------------------0/x/9-------9\x\0-------------------------------------------0/x/9---|
D|--2----------------------------------2/x/10-----10\x\2-------------------------------------------2/x/10--|
A|--2----------------------------------2/x/10-----10\x\2-------------------------------------------2/x/10--|
E|--0----------------------------------0/x/8-------8\x\0-------------------------------------------0/x/8---|
Destiny, destiny protect me from the world,.......... destiny, hold my hand protect me from the world

[ADD] (sur couplet) :
   Em               C                      Em         C
e|------------------------------------------------------------------------------|
B|----------------11--13-----------------------11--13--------13--11--13---------|
G|------------------------12-----------------------------12------------------12-|
D|------------------------------------------------------------------------------|
A|------------------------------------------------------------------------------|
E|------------------------------------------------------------------------------|

  [Bridge]
e|------------------------------------------------------------------------------------------------|
B|------------------------------------------------------------------------------------------------|
G|--11--12--14--12--11---------9------------11---------------12-----------14----------16--16--16--|
D|------------------------------------------------------------------------------------------------|
A|--9---10--12--10---9---------7-------------9---------------10-----------12----------14--14--14--|
E|------------------------------------------------------------------------------------------------|
Here we are...... with our running and confusion, and I don't see no confusion anywhere

  [Chorus]
             G5   G5/F#     Em5         C5   C5/B   A5              D5      D5/C   G5          Em5   D5
e|-----------------------------------------------------------------------------------------------------|
B|-----------------------------------------------------------------------------------------------------|
G|--------------------------------------5-----5------2--------------7-------7------------------------7-|
D|-----------5------5--------2----------5-----5------2--------------7-------7-------5-----------2----7-|
A|-----------5------5--------2----------3-----2------0--------------5-------3-------5-----------2----5-|
E|-----------3------2--------0------------------------------------------------------3-----------0------|
And if the worm ...does... turn and if Lon....don.. burns I'll be standing on the beach with my guitar

   D5     G5   G5/F#   Em5         C5     C5/B     A5         D5            G5           Em5             D5
e|----------------------------------------------------------------------------------------------------------|
B|----------------------------------------------------------------------------------------------------------|
G|--7------------------------------5--------5-------2---------7-------------------------------------------7-|
D|--7------5-----5------2----------5--------5-------2---------7-------------5-------------2---------------7-|
A|--5------5-----5------2----------3--------2-------0---------5-------------5-------------2---------------5-|
E|---------3-----2------0---------------------------------------------------3-------------0-----------------|
I wanna be.. in a.. band when I get to. hea.....ven ...anyone can play guitar, and they 
won't be a nothing anymore

  [Interlude]
   C5         Em                 Bb                                            Em
e|-----------------------------------------------------------------------------------------|
B|-----------------------------------------------------------------------------------------|
G|-5--------------------------------------------------------------------------9---7--5--4--|
D|-5---------------------------------------------------------------------------------------|
A|-3---------------------------------------------------------------------------------------|
E|-------3--2--0-----0--2--3--5--6----5--3--6----5--3--6---5--3--0-------------------------|

          Bb                                                    Em
e|--------------------------------------------------------------0-|
B|--------------------------------------------------------------0-|
G|--------------------------------------------------------------0-|
D|-------5---7---8------7---5---8------7---5---8------7---5-----2-|
A|--------------------------------------------------------------2-|
E|-------3---5---6------5---3---6------5---3---6------5---3-----0-|

  [2nd Bridge + SOLO ]
e|-------------------------------------------------------------------------------------------------|
B|-------------------------------------------------------------------------------------------------|
G|-11--12--14--12--11---------9-------------11--------------12-------------14----------16--17--19--|
D|-------------------------------------------------------------------------------------------------|
A|-9---10--12--10---9---------7--------------9--------------10-------------12----------14--15--17--|
E|-------------------------------------------------------------------------------------------------|
Here.we are...... with our running and confusion, and I don't see no confusion anywhere

  [Solo]
e|--------------------------------------------------------------------------------|
B|--------------------------------------------------------------------------------|
G|-19---19---19---17-19-19--17-19-19--17-19-19--17-19-19---17\16\14\12\11\9\7\5\4-|
D|--------------------------------------------------------------------------------|
A|-17---17---17-------------------------------------------------------------------|
E|--------------------------------------------------------------------------------|

For the second part of the mini lead just before the
second verse, I give you this:

e|-----------------------------------------------------------------------|
B|--5------------5--5----------------------------------------------------|
G|--7b(9)b7--5--4--0-2-3--0-2-3-2-0-3-2-0--------------------------------|
D|----------------------------------------------------------2------------|
A|-----------------------------------------------------------------------|
E|-----------------------------------------------------------------------|

************************************

| x  Dead note
| /  Slide up
| \  Slide down

************************************
Suggest correction
comments
print report bad tab
5 comments total. Showing first comments.
-2 reply
jimizeppelin 397 Sep 08, 2006 08:00 PM

suckks

+2 reply
klysandral 221 Mar 07, 2007 03:37 PM

during a lot of this song its really hard to hear whats going on considering there are three guitars with max distortion making a bunch of racket, but the first part where you have jonny sliding up that minor chord shape what is actually happening is he plays the chord then uses the palm of his left hand to slide up the fret board all the way to his bridge, watch some live videos maybe you can make out more.

+3 reply
OtaconNachos 115 Sep 01, 2007 11:31 PM

It's a decent tab

guest
You may want to rate the tab now too:
select rating
Wanna post a correction for this tab? Suggest correction