Oops, an error
Loading. Please wait.

Arpeggi Tab

version 1
version 1

Whole song

Interactive

12,190 views 9 this week
2 commentsread comments
1 2 3 4 5
worth learning
x 4
add to favorites
launch autoscroll
font size
0
reset
how to read this tab
guitar tuner
Tab Pro tools
  • play this tab
  • loop segment
  • change instrument
  • show fretboard
  • metronome
Autoscroll
slow
fast
+/-
esc
set tempo
stop
Contributor
                                 .===========.                  
                                 |::ARPEGGI::|
                                 ·===========·

Just a simple version of the Ether Festival Bootleg. You'll get a nicest sound if you 
play one it octave up (Capo on twelve fret). 
There are several repetitions of each cord, figure it out yourself.

 
e|--------------------------------------|--------------------------------------|
B|--3--------3--------3--------3--------|--5--------5--------5--------5--------|
G|-----0--------0--------0--------0-----|-----2--------2--------2--------2-----|
D|--------2--------2--------2--------2--|--------4--------4--------4--------4--|
A|--------------------------------------|--------------------------------------|
E|--------------------------------------|--------------------------------------|
                                                                                 END
e|--5--------5--------5--------5--------|--2--------2--------2--------2--------|--0--|
B|--------------------------------------|-----3--------3--------3--------3-----|-----|
G|-----6--------6--------6--------6-----|--------4--------4--------4--------4--|-----|
D|--------7--------7--------7--------7--|--------------------------------------|-----|
A|--------------------------------------|--------------------------------------|-----|
E|--------------------------------------|--------------------------------------|-----|


Another simplified version of this song. Not needed capo, for obvious reasons. If you have a friend
to plays this while you play the part above (open without a capo), it will sound great. The others 
notes, dancing around this principal line, i could not figure out

e|--10--------10--------10--------10--------|--12----------12----------12----------12----------|
B|------8---------8---------8---------8-----|------10----------10----------10----------10------|
G|---------9---------9---------9---------9--|----------11----------11----------11----------11--|
D|------------------------------------------|--------------------------------------------------|
A|------------------------------------------|--------------------------------------------------|
E|------------------------------------------|--------------------------------------------------|

e|--17----------17----------17----------17----------|--14----------14----------14----------14----------|
B|------14----------14----------14----------14------|------15----------15----------15----------15------|
G|----------14----------14----------14----------14--|----------16----------16----------16----------16--|
D|--------------------------------------------------|--------------------------------------------------|
A|--------------------------------------------------|--------------------------------------------------|
E|--------------------------------------------------|--------------------------------------------------|
    END
e|--12--|
B|------|
G|------|
D|------|
A|------|
E|------|
comments
print report bad tab
2 comments total.
-1 reply
the piper wrote on January 23 2008, 07:55 pm

ummmm no bad wrong name tab right name and right way to play

-1 reply
omertachris wrote on July 22 2008, 10:11 pm

this is shit!

I want to post or [tab]
guest
You may want to rate the tab now too:
select rating
Please do not post tabs as comments. Select "correction" instead!