Oops, an error
Loading. Please wait.

Backdrifts Bass

version 1
version 1

Whole song

Interactive

2,801 views 3 this week
no commentswrite comment
1 2 3 4 5
x 4
add to favorites
launch autoscroll
font size
0
reset
guitar tuner
Autoscroll
slow
fast
+/-
esc
set tempo
stop
Author
----------------------------------------------------------------------------
                         Radiohead backdrifts
----------------------------------------------------------------------------

Standar tuning
THis is done on synth. The timing is not correct.

(0:49)
G---9-----------------------------------------------------------------------|
D-----9--9--9-9--9--9---9--9-9--9-9-------9--9--9-9--9--9---9--9-9--9-9-----|
A-7-------------------------------------------------------------------------|
E-----------------------------------7-7---------------------------------7-7-|

G-----------------------------------------------------------9--9--9-9------|
D--9--9--9-9--9--9---9--9-9--9--9-9-9-7--7-7--7-7--7-7-7-7-----------------|
A---------------------------------------------------------------------7--7-|
E--------------------------------------------------------------------------|

G-----------------------------------|
D--9--9--9-9--------9--9--9-9-------|
A-----------------------------------|
E-------------7--7------------7-7-7-|

(1:26)

G----------------------7-7--7--6--6-6----------------------7-7--7--6--6-6-|
D--9--9--9----9--9----------------------9--9--9-9--9-9--------------------|
A--------------------5-----------------------------------5----------------|
E----------7--------------------------------------------------------------|

G----------------------7-7--7--7--7-7---------------------------------------|
D--9--9--9----9--9--------------------7-7--7-7--7-7--7--7-10-10-10-10-10-10-|
A--------------------5------------------------------------------------------|
E----------7----------------------------------------------------------------|

G-----------------------7-7--7-7--7---------------------------7----7--7-7-7-|
D--9-9--9-9--9-9--9--9--------------9-9-9--9-9--9-9--9-9--9-9---------------|
A---------------------------------------------------------------------------|
E---------------------------------------------------------------------------|

(1:57)

G--------------------------------------------------------------------------|
D----9--9--9-9--9--9---9--9-9--9-9-------9--9--9-9--9--9---9--9-9--9-9-----|
A--------------------------------------------------------------------------|
E----------------------------------7-7---------------------------------7-7-|

G-----------------------------------------------------------9--9--9-9------|
D--9--9--9-9--9--9---9--9-9--9--9-9-9-7--7-7--7-7--7-7-7-7-----------------|
A---------------------------------------------------------------------7--7-|
E--------------------------------------------------------------------------|

G-----------------------------------------------------|
D--9--9--9-9--------9--9--9-9---------9--9---9-9--9-9-|
A-----------------------------------------------------|
E-------------7--7------------7-7-7-------------------|

(2:28)
G----------------------7-7--7--7--6-6----------------------7-7--7--7--6-6-|
D--9-9---9--9-9-9-9----------------------9--9--9-9--9-9-------------------|
A-------------------------------------------------------------------------|
E------7-----7----------------------------------7----7--------------------|

G----------------------7-7-7-7--7-7-7-----------------------------9-9-9-9-9-|
D--9--9--9----9--9--------------------7-7-7-7-7--7-7-7-7-10-10-10-----------|
A--------------------5------------------------------------------------------|
E----------7----------------------------------------------------------------|

G-----------------------7-7--7-7--7-7-7------------------------------------|
D--10-10-10-9-9-9-9--9-----------------------------------------------------|
A----------------------------------------5---------------------------------|
E-----------------------------------------------------------5--------------|


(2:59)
G----------------------------------------------------------11--|
D-16--------------------9--9-----------------------------------|
A---------------------9-------------------5-5-5-5-------/9-----|
E------------7----7------------7---7----7----------7--7--------|

(3:09)

G---------------------------------------------------------------------|
D-9--9--9--9-9---9--9--9---7-7------9--9--9---------9--9--9--7-7--7-7-|
A------------------------------9-9------------------------------------|
E--------------------------------------------7-7----------------------|

G----------7-7-------------7-7--7---------------------------------------|
D-9--9--9--------9--9--9----------7--7--7--7-7-7-5---5--5--5--5-5--5----|
A-----------------------------------------------------------------------|
E-----------------------------------------------------------------------|

G----------------------11-------------------|
D-9--9--9--9-9---9--9-----------------------|
A-------------------------9--9--9-\5-5------|
E----------------------------------------7--|


That's pretty much the whole song. Just repeat the verse with variation and it's the 
for the outro.
Suggest correction
comments
print report bad tab
guest
You may want to rate the tab now too:
select rating
Wanna post a correction for this tab? Suggest correction