Oops, an error
Loading. Please wait.

Bloom Bass Tab

version 1
version 1

Whole song

Interactive

15,923 views 39 this week
3 commentsread comments
1 2 3 4 5
x 14
add to favorites
launch autoscroll
font size
0
reset
guitar tuner
×
Best way to learn
"Bloom"
Autoscroll
slow
fast
+/-
esc
set tempo
stop
Bloom
by Radiohead
from King of Limbs (2011)

   D                                               G            
g|-------------------9-----10-------------------------------------------------------------------|
d|-------------12----------------------(12)----------------12----10----------------12----10-----|
a|----------(12)---12---------------(12)-----------------------12----1210--------------12----12-|
e|-10--------------------10---------------------------------------------------------------------|

This riff comes in at 0:47, with the notes in brackets only played once or twice.
It continues until 2:17.

It comes back at 3:24 until 4:41 ending on

g|----|
d|----|
a|----|
e|-10-|

The second half is then played right at the end, at 5:01, also ending on

g|----|
d|----|
a|----|
e|-10-|

It's also likely that 

g|---------|
d|---12\---|
a|---------|
e|---------|

is used as a background sound throughout the song.

Cheers.
Suggest correction
comments
print report bad tab
3 comments total.
0 reply
kyri_ansell 10 Jul 13, 2011 05:28 PM

does the (12) mean its optional? sorry i'm a bit new to tabs

+1 reply
pixiesrule73 957 Jul 13, 2011 08:01 PM

I don't know if it's standard or not, but I meant that the (12) is only played occasionally (from memory, only the first time the loop goes through) but is not played generally.

That's just my notation, others might do things differently.

+2 reply
troppsal1 10 Feb 09, 2012 12:25 PM

there is a

g|------------------------------|
d|------------------------------|
a|--5--0-3--0-----5--0-3--0-----|
e|------------5------------0~---|
at the end in Drop D.

guest
You may want to rate the tab now too:
select rating
Wanna post a correction for this tab? Suggest correction