Oops, an error
Loading. Please wait.

Bulletproof I Wish I Was tab

version 2
version 2

Whole song

Interactive

2,443 views 63 this week
no commentswrite comment
1 2 3 4 5
x 7
add to favorites
×
Save as Personal and add changes to this tab that will be seen only by you. Learn more ›
×
You can save this tab as Personal to edit and correct it or add notes. All changes will be seen only by you. Learn more »
launch autoscroll
font size
0
reset
how to read this tab
guitar tuner
edit
Autoscroll
slow
fast
+/-
esc
set tempo
stop
Author
Difficulty
----------------------------------------------------------------------------------------------------------------
|                                                                                                              |
|                                               Tabbed by kylepo                                               |
|                                                                                                              |
----------------------------------------------------------------------------------------------------------------


I tried to find a tab for this song, but I couldn't find one with a correct chorus for the lead guitar.
As such, I've taken it upon myself to figure it out and make this tab. Enjoy!



VERSE

   Am7                        Cmaj7                      G6                         Dsus2
e--0--0--0--0--0--0--0--0--|--0--0--0--0--0--0--0--0--|--0--0--0--0--0--0--0--0--|--0--0--0--0--0--0--0--0--|
B--1--1--1--1--1--1--1--1--|--0--0--0--0--0--0--0--0--|--3--3--3--3--3--3--3--3--|--2--2--2--2--2--2--2--2--|
G--0--0--0--0--0--0--0--0--|--0--0--0--0--0--0--0--0--|--0--0--0--0--0--0--0--0--|--3--3--3--3--3--3--3--3--|
D--2--2--2--2--2--2--2--2--|--2--2--2--2--2--2--2--2--|--0--0--0--0--0--0--0--0--|--0--0--0--0--0--0--0--0--|
A--0--0--0--0--0--0--0--0--|--3--3--3--3--3--3--3--3--|--2--2--2--2--2--2--2--2--|--------------------------|
E--------------------------|--------------------------|--------------------------|--------------------------|


CHORUS - GUITAR 1

   G6                         Dsus2/B                    Cadd9 
e--0--0--0--0--0--0--0--0--|--0--0--0--0--0--0--0--0--|--0--0--0--0--0--0--0--0--|
B--3--3--3--3--3--3--3--3--|--3--3--3--3--3--3--3--3--|--3--3--3--3--3--3--3--3--|
G--0--0--0--0--0--0--0--0--|--2--2--2--2--2--2--2--2--|--0--0--0--0--0--0--0--0--|
D--0--0--0--0--0--0--0--0--|--0--0--0--0--0--0--0--0--|--2--2--2--2--2--2--2--2--|
A--2--2--2--2--2--2--2--2--|--2--2--2--2--2--2--2--2--|--3--3--3--3--3--3--3--3--|
E--3--3--3--3--3--3--3--3--|--------------------------|--0--0--0--0--0--0--0--0--|

   Cadd9                      A#6
e--0--0--0--0--0--0--0--0--|--0-----------------------|
B--3--3--3--3--3--3--3--3--|--3-----------------------|
G--0--0--0--0--0--0--0--0--|--0-----------------------|
D--2--2--2--2--2--2--2--2--|--3-----------------------|
A--3--3--3--3--3--3--3--3--|--1-----------------------|
E--0--0--0--0--0--0--0--0--|--------------------------|


CHORUS - GUITAR 2

   G6                                Dsus2/B
e--------7---7-------7---7--------|--------0---0-------0---0--------|
B--7h8---8---8-7h8---8---8-7h8----|--------7---7-------7---7--------|
G------0-----------0-----------0--|--7p0-0-------7p0-0-------7p0-0--|
D---------------------------------|---------------------------------|
A---------------------------------|---------------------------------|
E---------------------------------|---------------------------------|

   Cadd9                             Cadd9                             A#6
e--------0---0-------0---0--------|--------0---0-------0---0--------|--0-----------------------|
B--------5---5-------5---5--------|--------5---5-------5---5--------|--3-----------------------|
G--4h5p0-------4h5p0-------4h5p0--|--4h5p0-------4h5p0-------4h5p0--|--0-----------------------|
D---------------------------------|---------------------------------|--3-----------------------|
A---------------------------------|---------------------------------|--1-----------------------|
E---------------------------------|---------------------------------|--------------------------|

Suggest correction
Creating personal tab
Creating personal tab
You can edit any tab online and save it as your Personal.

You can edit, replace or remove any tab part or add personal notes – all changes will be seen only by you.

Personal tabs can be accessed anytime from any device, even offline.
Learn more »
comments
print report bad tab
guest
You may want to rate the tab now too:
select rating
Wanna post a correction for this tab? Suggest correction