Oops, an error
Loading. Please wait.
We have Chord Pro version of Burn The Witch.
It's the closest thing you can get to the original song and it has interactive parts. Check out the tab »
×
5,314 views 45 this week
1 commentread comment
1 2 3 4 5
x 5
add to favorites
×
Save as Personal and add changes to this tab that will be seen only by you. Learn more ›
×
You can save this tab as Personal to edit and correct it or add notes. All changes will be seen only by you. Learn more »
launch autoscroll
font size
0
reset
how to read this tab
guitar tuner
edit
Autoscroll
slow
fast
+/-
esc
set tempo
stop
Author
#----------------------------------PLEASE NOTE--------------------------------#
#This file is the author's own work and represents their interpretation of the#
#song. You may only use this file for private study, scholarship, or research.#
#-----------------------------------------------------------------------------#
#-- File created with Instab - http://www.pconline.com/~smcarey/instab.html --#
#-----------------------------------------------------------------------------#

Author/Artist: Radiohead
Title: Burn The Witch
Transcribed By: Not Album Tuning

Verse
Key: (G + G#)
Chorus
Key: (B + F)


Strum at the 22nd fret.
Fret intro on bars.


Tuning (c# A D G B E), Down ~ 10%, (c#, D) Down ~ 20%
Live Standard Tuning, Down ~ 10%



e----|-------------|--|-----------------------------------------------------|
B----|-------------|--|-----------------------------------------12-12-12-12-|
G----|-11-11-11-11-|--|-11-11-11-----------------11-11-11-11-11-11-11-11-11-|
D----|-11-11-11-11-|3x|-11-11-11-9-9-9-9-9-9-9-9-9--9--9--9--9--9--9--9--9--|
A----|-9--9--9--9--|--|-9--9--9--9-9-9-9-9-9-9-9-9--9--9--9--9--------------|
C#---|-------------|--|-----------------------------------------------------|


  Intro/Verse                                                                 




e----|----------------------------------------|
B----|-6--------------------------------------|
G----|-6-------------------4------------------|
D----|-6-------------------4------------------|
A----|-4-------------------2------------------|
C#---|----------------------------------------|


  Prechorus                               

                                    

e----|--------------------------------------------------------------|--|
B----|--------------------------------------------------------------|--|
G----|--------------------------------------------------------------|--|
D----|--------------------------------------------------------------|--|
A----|--------------------------------------------------------------|--|
C#---|-5---5-5---5---1-1--1/3---3---3---8-8-8/10--10-10--10--10-10--|--|


  Chorus                                                       


               

e----|-----------------------------|--|--------------------------------|
B----|-----------------------------|--|--------------------------------|
G----|-----------------------------|--|--------------------------------|
D----|-----------------------------|--|--------------------------------|
A----|-----------------------------|--|--------------------------------|
C#---|-5---5---5-5----1---1---1-1--|--|-8---8---8-8---10---10---10-10--|


  Bridge 1                                                                    



e----|--------------|
B----|--------------|
G----|-11-11-11-11--|
D----|-11-11-11-11--|
A----|-9--9--9--9---|
C#---|--------------|


  Bridge 2                                                                    




e----|--------------------------------------------------|--|
B----|--------------------------------------------------|--|
G----|--------------------------------------------------|--|
D----|--------------------------------------------------|--|
A----|--------------------------------------------------|--|
C#---|-13---13---13---13-13---13-13/15--15---15--15-15--|--|


  Climax                                                                      

Suggest correction
Creating personal tab
Creating personal tab
You can edit any tab online and save it as your Personal.

You can edit, replace or remove any tab part or add personal notes – all changes will be seen only by you.

Personal tabs can be accessed anytime from any device, even offline.
Learn more »
comments
print report bad tab
1 comment total.
0 reply
benjamin.niklas.koerner 20 Jun 07, 2016 01:39 PM

Really liked this tab and it is definitely worth learning. Pretty easy, though.

guest
You may want to rate the tab now too:
select rating
Wanna post a correction for this tab? Suggest correction