Oops, an error
Loading. Please wait.
We have Chord Pro version of Burn The Witch.
It's the closest thing you can get to the original song and it has interactive parts. Check out the tab »
×

Burn The Witch chords

version 3
version 3

Whole song

Interactive

2,917 views 18 this week
no commentswrite comment
1 2 3 4 5
x 4
add to favorites
×
Save as Personal and add changes to this tab that will be seen only by you. Learn more ›
×
You can save this tab as Personal to edit and correct it or add notes. All changes will be seen only by you. Learn more »
launch autoscroll
font size
0
reset
transpose
0
reset
simplify chords
display chords
guitar tuner
edit
Autoscroll
slow
fast
+/-
esc
set tempo
stop
Author
Difficulty
About this tab version
Includes chords and several string parts and extended. Was this info helpful? Yes No
Strumming Is this strumming pattern correct? Yes No
Whole Song 149 bpm
1
&
2
&
3
&
4
&
Listen
Radiohead
"Burn The Witch"

Suggested fingerings
F#6/9 2x1122
Emaj9 021102

For added effect, gradually bend the D# of the Emaj9 up to E, not unlike "Dollars & Cents" and pick near
the bridge of the guitar to simulate pizzicato strings.

[Intro]
F#6/9    Emaj9

[Verse]

F#6/9             Emaj9
   Stay in the shadows
F#6/9             Emaj9
   Cheer at the gallows
F#6/9             Emaj9
   This is a round up
F#6/9             Emaj9
   This is a low flying panic attack

[Pre-Chorus]
C#                      B
   Sing the song on the jukebox that goes


[Chorus]

F#   D E          A B
Bu-u-u-urn the wi-i-itch
F#   D E          A B
Bu-u-u-urn the wi-i-itch
F#       D  E             A B
We kno-o-ow where you live

[Verse]
F#6/9                Emaj9
          Red crosses on wooden doors
e|--------7---6---|------5---------|
B|---7------------|-----------7----|
G|----------------|----------------|
D|----------------|--4-6-----------|
A|----------------|7---------------|
E|----------------|----------------|

F#6/9                Emaj9
          If you float you burn
e|--------7---6---|4-2-------------|
B|---7------------|----3-----------|
G|----------------|----------------|
D|---4------------|6-4-------------|
A|----------------|----5-----------|
E|----------------|----------------|

F#6/9                Emaj9
          Loose talk around tables
e|--------7---6---|------5---------|
B|---7------------|--------------7-|
G|----------------|----------------|
D|----------------|--4-6-----------|
A|----------------|7---------------|
E|----------------|----------------|

D                  E
          Abandon all reason
e|5-5-------5-----|7-------6-------|
B|5-3-------2-----|----------------|
G|----------------|4-------3-------|
D|----------------|----------------|
A|----------------|----------------|
E|----------------|----------------|


F#6/9          Emaj9
   Avoid all eye contact
F#6/9          Emaj9
   Do not  react
F#6/9          Emaj9
   Shoot the messengers
F#6/9          Emaj9
   This is a low flying panic attack

[Pre-Chorus]
  C#               B
  Sing the song of sixpence that goes
e|----------------|----------------|
B|----------------|----------------|
G|----------------|----------------|
D|7---6---4---3---|2---1-----------|  
A|----------------|--------4---2---|    
E|----------------|----------------|

  
[Chorus]

F#   D E          A B
Bu-u-u-urn the wi-i-itch
F#   D E          A B
Bu-u-u-urn the wi-i-itch
F#       D  E             A B
We kno-o-ow where you live
F#       D  E             A B
We kno-o-ow where you live

[Outro]

D  E
D  E
F#

            
            
Suggest correction
Creating personal tab
Creating personal tab
You can edit any tab online and save it as your Personal.

You can edit, replace or remove any tab part or add personal notes – all changes will be seen only by you.

Personal tabs can be accessed anytime from any device, even offline.
Learn more »
comments
print report bad tab
guest
You may want to rate the tab now too:
select rating
Wanna post a correction for this tab? Suggest correction