Oops, an error
Loading. Please wait.

Creep Tab

version 1
version 1
2,097,625 views 4,200 this week
48 commentsread comments
1 2 3 4 5
excellent!
x 264
add to favorites
launch autoscroll
font size
0
reset
how to read this tab
guitar tuner
Autoscroll
slow
fast
+/-
esc
set tempo
stop
Help us to improve Ultimate-Guitar.com Take our survey!
×
[Intro]

(Guitar 1) 

(clean elec w/ tremolo effect, let ring throughout)
e|----------------------------------|----------------------------------|
B|----------------------------------|3-----------------------3---------|
G|--------------------4-------------|----4-------4---------------------|
D|--------5-------5-----------5-----|--------5-------------------5/----|
A|----5-------5---------------------|----------------------------------|
E|-3--------------------------------|----------------------------------|
   1  &   2   &   3   &   4   &      1   &   2   &   3   &   4   &
                                     
e|----------------------------------|----------------------------------|
B|----------------------------------|----------------------------------|
G|--------8-----------8-------------|9-----------8-----------8---------|
D|------------9---------------------|------------9---------------9-----|
A|----9-----------9-----------------|----9-----------------------------|
E|-7--------------------------------|----------------------------------|
   1  &   2   &   3   &   4   &      1   &   2   &   3   &   4   &
  
e|----------------------------------|----------------------------------|
B|----------------------------------|----------------------------------|
G|--------9-----------9-------------|10----------9-----------9---------|
D|----------------------------------|----------------------------10----|
A|----10------10--------------10----|--------10----------10------------|
E|-8--------------8-----------------|----------------------------------|
   1   &   2   &   3   &   4   &     1   &   2   &   3   &   4   &
   
e|----------------------------------|----------------------------------|
B|----------------------------------|----------------------------------|
G|----8-----------8-----------------|----8-----------8-----------------|
D|--------10----------10------10----|--------10----------10------------|
A|-10---------10----------10--------|10----------10----------10--------|
E|------------------------8---------|----------------------------------|
    1  &   2   &   3   &   4   &     1   &   2   &   3   &   4   &
                                          When you were here before

                                                                           
[Verse 1] 

e|----------------------------------|----------------------------------|
B|----------------------------------|----------------------------------|
G|----------------------------------|4-----------------------4---------|
D|--------5----------5--------------|--------5-------------------5-----|
A|----5-------5---------------5-----|------------5-------5-------------|
E|-3--------------3-----------------|----------------3-----------------|
   1  &   2   &   3   &   4   &      1   &   2   &   3   &   4   &
                                        Couldn't look you in the eye    
 
e|----------------------------------|----------------------------------|
B|----------------------------------|----------------------------------|
G|----------------------------------|8-----------------------8---------|
D|-(8)----9-----------9-------------|----9-------9---------------9-----|
A|----9-----------9-----------9-----|--------9-----------9-------------|
E|-7--------------------------------|----------------------------------|
   1  &   2   &   3   &   4   &      1   &   2   &   3   &   4   &
                                      You're just like an angel
                                                                                    
e|----------------------------------|----------------------------------|
B|----------------------------------|----------------------------------|
G|--------------------9-------------|9---------------------------------|
D|--------10-----10-----------10----|----10------10----------10--------|
A|----10------10--------------------|--------10----------10------10----|
E|-8--------------------------------|----------------------------------|
   1  &   2   &   3   &   4   &      1   &   2   &   3   &   4   &
                                       Your skin makes me cry
                                                                                   
e|----------------------------------|----------------------------------|
B|----------------------------------|----------------------------------|
G|----------------8-----------------|8-------------------8-------------|
D|----10------10------10------10----|--------10--------------10--------|
A|--------10--------------10--------|----10------10--10----------10----|
E|-8--------------------------------|----------------------------------|
   1  &   2   &   3   &   4   &      1   &   2   &   3   &   4   &
                                       You float  like  a  feather 
                                                                                   
e|----------------------------------|3-----------------------3---------|
B|----------------------------------|3-------------3-------------------|
G|--------4-----------4-------4-----|--------4-----4-------------4-----|
D|------------5---------------------|------------5---------------------|
A|----5-----------5-----------------|----------------------------------|
E|-3--------------------------------|----------------------------------|
   1   &   2   &   3   &   4   &     1   &   2   &   3   &   4   &
                                        in a beautiful world
                                                                         
e|----------------------------------|7-----------------------7---------|
B|--------7-----------7-------7-----|7---7-------7---------------7-----|
G|--------8-------8-------8---------|--------8-----------8-------------|
D|----9-------9---------------------|----------------------------------|
A|-9--------------------------------|----------------------------------|
E|----------------------------------|----------------------------------|
   1  &   2   &   3   &   4   &      1   &   2   &   3   &   4   &
                                        I wish I was special                     
 
e|----------------------------------|8-----------------------8---------|
B|------------------------8---------|----8-------8---------------8-----|
G|--------9-------9-----------9-----|--------9-----------9-------------|
D|----10--------------10------------|----------------------------------|
A|-10----------10-------------------|----------------------------------|
E|----------------------------------|----------------------------------|
   1   &   2   &   3   &   4   &     1   &   2   &   3   &   4   &
                                           You're so fuckin'special
  
 (Guitar 1) 

e|----------------------------------|----------------------------------|
B|----8-----------------------------|----------------------------------|
G|--------8-------8-----------------|----8-----------8-----------------|
D|------------10------10------10----|--------10----------10------10----|
A|-10---------------------10--------|10----------10----------10--------|
E|----------------------------------|----------------------------------|
   1  &   2   &   3   &   4   &      1   &   2   &   3   &   4   &
                                                          
(Guitar 2)

(elec. w/ HEAVY dist){mute open strings behind 2nd fret}
e|----------------------------------|----------------------------------|
B|----------------------------------|----------------------------------|
G|----------------x-x---------------|----x-x-----------------x-x-0-0---|
D|----------------x-x---------------|----x-x-----------------x-x-0-0---|
A|----------------x-x---------------|----x-x-----------------x-x-------|
E|----------------x-x---------------|----x-x-----------------x-x-------|
  1   &   2   &   3   &   4   &      1   &   2   &   3   &   4   &                                   
                                                          But I'm   a  


[Chorus] 

(Guitar 2)

e|-3---------------------------------|----------------------------------|
B|-3---------------------------------|----------------------------------|
G|-0---------------------------------|--------------------0---0---0-0---|
D|-0---------------------------------|--------------------0---0---0-0---|
A|-----------------------------------|----------------------------------|
E|-3---------------------------------|--------------------3---3---------|
   1   &   2   &   3   &   4   &      1   &   2   &   3   &   4   &
                                                           
(Guitar 1)

e|--------3-------3-----------------|----------------------------------|
B|------------------------0-1-3-----|----------------------------------|
G|-0------------------0-------------|----0-----------------------------|
D|-0--------------------------------|------------0---------------------|
A|----------------------------------|----------------------------------|
E|-3--------------------------------|--------------------3/-(2-2)\-----|
   1  &   2   &   3   &   4   &      1   &   2   &   3   &   4   &     
   creep                                             I'm a weirdo
  
 (Guitar 2)

e|-7-----------------7-7-7-7---7-----|----------------------------------|
B|-7-----------------7-7-7-7---7-----|----------------0-0-0-0-0---------|
G|-8-----------------8-8-8-8---8-----|----------------------------------|
D|-9---------------------------9-----|----------------------------------|
A|-9---------------------------9-----|----------------------------9-9---|
E|-7---------------------------7-----|----------------------------7-7---|
   1   &   2   &   3   &   4   &      1   &   2   &   3   &   4   &
                                                           
 (Guitar 1)

e|-----------------------------------|----------------------------------|
B|-------------------------7---------|----------------------------------|
G|-------------------------8-9-8-----|----------------------------------|
D|-9-----------------------9---------|----9-----------------------------|
A|-9---------------------------------|------------9-----------9---------|
E|-7---------------------------------|--------------------7-------------|
   1   &   2   &   3   &   4   &      1   &   2   &   3   &   4   &
                                             What the hell am I doin'  
e|-----------------------------------|----------------------------------|
B|-----------------------------------|----------------------------------|
G|-----------------------------------|----------------------------------|
D|-(10)------10-10-10-10/-12-12------|(12)------------------------------|
A|-----------------------------------|----------------------------------|
E|--8--------8--8--8---8/-10-10------|(10)------------------------------|
                                                   
e|-----------------------------------|----------------------------------|
B|------------------------8----------|----------------------------------|
G|-9-----------------------9-10-9----|----------------------------------|
D|-10----------------------10---10---|----10----------------------------|
A|-10--------------------------------|------------10--------------------|
E|-8---------------------------------|------------------------8---------|
   1   &   2   &   3   &   4    &     1   &   2   &   3   &   4   &
   here                                              I don't belong 
 
e|--------------------------------|--------------------------------------|
B|--------------------------------|--------------------------------------|
G|--------------------------------|--------------------------------------|
D|(13)------13-13-13-13/-15-15----|15-15-15-15--15--------------15/---17-|
A|--------------------------------|--------------------------------------|
E|(11)------11-11-11-11/-13-13----|13-13-13-13--13--------------13/---15-|
                                    1        &   2   &   3   &   4   &
  
e|---------------------------------|----8---------------------------------|
B|---------------------------------|----8---------------------------------|
G|-8-------------------------------|----8---------------------------------|
D|-(10)----------------------------|---(10)-------------------------------|
A|-(10)----------------------------|---(10)-------------------------------|
E|-8-------------------------------|----8---------------------------------|
   1   &   2   &   3   &   4   &        1   &   2   &   3   &   4   &
  here                                      2.I don't care if it hurts
 

[Verse 2]            

                    G
I don't care if it hurts 
                    B 
I want to have control 
                  C
I want a perfect body 
                  Cm
I want a perfect soul 

               G
I want you to notice 
               B
When I'm not around 
                    C
You're so fucking special 

                C
I wish I was special 


[Chorus]

            G            B 
But I'm a creep, I'm a weirdo 
                          C
What the hell am I doing here? 
           Cm   
I don't belong here 


[Bridge]

G                      B
She's running out the door
C 
She's running 
    Cm  
She run, run, run, run 
G         B
Run 
C         Cm
Run 


[Verse 3]

                    G
Whatever makes you happy 
              B 
Whatever you want 
                    C
You're so fucking special 
               Cm
I wish I was special 


[Chorus]

            G           B    
But I'm a creep, I'm a weirdo 
                          C   
What the hell am I doing here? 
           Cm 
I don't belong here 
           G  
I don't belong here


***********************************
| /   Slide up
| \   Slide down
| x   Dead note
|(n)  Ghost note
***********************************
comments
print report bad tab
48 comments total. Showing first comments. show 1 bad comment
+9 reply
jebus 10 wrote on April 1 2002, 12:00 am

a good tab although it is wrong in places!!! v.close though

+9 reply
strato 20 wrote on May 2 2002, 12:00 am

nice

I want to post or [tab]
guest
You may want to rate the tab now too:
select rating
Please do not post tabs as comments. Select "correction" instead!