Oops, an error
Loading. Please wait.
We have an official Creep tab made by UG professional guitarists. Check out the tab »
×

Creep tab

6,361 views 48 this week
no commentswrite comment
1 2 3 4 5
x 11
add to favorites
×
Save as Personal and add changes to this tab that will be seen only by you. Learn more ›
×
You can save this tab as Personal to edit and correct it or add notes. All changes will be seen only by you. Learn more »
launch autoscroll
font size
0
reset
how to read this tab
guitar tuner
backing track
0:00
0:00
edit
Autoscroll
slow
fast
+/-
esc
set tempo
stop
Author
About this tab version
The arpeggios that are in this tab are different compared to other tabs because this is based on Cifra Club tutorial and it's more accurate, you can check it out by playing the song. Was this info helpful? Yes No
Song: Creep
by: Radiohead
Tab: https://www.cifraclub.com.br/radiohead/creep/

[Intro]

  G                                         B
E|-----------------------------------------|------------------------------------------|
B|---------------3----------3--------------|------------------------------------------|
G|-----4----4------4---4------4------------|-----8-----8-----9-----8----8-------------|
D|---5---5-----5-----5---------------------|---9---9------9----9------9---9-----------|
A|-----------------------------------------|------------------------------------------|
E|-3----------------------3----------------|-7-------7-----------7--------------------|

   C                                        Cm
E|-----------------------------------------|------------------------------------------|
B|-----------------------------------------|------------------------------------------|
G|------9------9------10------9-----9------|---8------8-----------8-------8-----------|
D|---10---10------10-----10------10---10---|-----10-----10---10-----10------10--------|
A|-----------------------------------------|-----------------------------------10-----|
E|-8---------8--------------8--------------|-8------8------8----8------8--------------|

[1era ESTROFA]

  G                                         B
E|-----------------------------------------|------------------------------------------|
B|-----------------------------------------|------------------------------------------|
G|----------------4--------4---------------|----------------8-----------8-------------|
D|-----5----5-------5---5----5-------------|-----9----9-------9---9-------9-----------|
A|---5---5-----5------5--------------------|---9---9-----9------9-----9---------------|
E|-3---------------------------------------|-7----------------------7-----------------|

   C                                        Cm
E|------------------------------------------|------------------------------------------|
B|------------------------------------------|------------------------------------------|
G|---------------9-------9--------------9---|------------8----------8-----------8------|
D|------10----10---10------10----10-------10|------10------10----10---10----10----10---|
A|---10----10---------10------10-----10-----|---10----10------10---------10----------10|
E|-8----------------------------------------|-8----------------------------------------|

                      G
When you were here before
                             B
Couldn't look you in the eye
                    C
You're just like an angel
                     Cm
Your skin makes me cry


[2da ESTROFA]

  G                                         B
E|----------------3--------3----------------|-----------------7----------7-------------|
B|----------------3--------3----------------|-----------7---7---7---7------7-----------|
G|-----4----4-------4---4----4--------------|-----8---8---8-------8--------------------|
D|---5---5-----5------5---------------------|---9---9------------------9---------------|
A|------------------------------------------|------------------------------------------|
E|-3----------------------------------------|-7----------------------------------------|

   C                                        Cm
E|------------------8---------8-------------|------------------------------------------|
B|-------------8----8-----------8-----------|------------8------8---------8------------|
G|------9----9----9---9----9------9---------|------8-------8------8----8----8----------|
D|---10---10------------10------------------|---10---10------10-----10--------10-------|
A|------------------------------------------|------------------------------------------|
E|-8----------------------------------------|-8----------------------------------------|

                  G
You float like a feather
                B
In a beautiful world
               C
I wish I was special
                    Cm
You're so fucking special

[1er CORO]

(Solo de guitarra)

E|----------------------------------------------------|
B|----------------------------------------------------|
G|-4----8----5...--7...--8...--10~~/12----------------|
D|-5----9---------------------------------------------|
A|-5----9----3...--5...--6...--8-~~/10----------------|
E|-3----7---------------------------------------------|

            G
But I'm a creep
       B
I'm a weirdo
                          C
What the hell am I doing here?
           Cm
I don't belong here


[3era ESTROFA]

   G                                         B
E|------------------------------------------|------------------------------------------|
B|------------------------------------------|------------------------------------------|
G|---------------4---------4----------------|---------------8----------8---------------|
D|-----5----5------5---5-----5--------------|-----9----9------9---9------9-------------|
A|---5----5----5-----5----------------------|---9----9----9-----9----------------------|
E|-3----------------------------------------|-7----------------------7-----------------|

   C                                        Cm
E|------------------------------------------|------------------------------------------|
B|------------------------------------------|------------------------------------------|
G|--------------------9-------------9-------|------------8---------------------8-------|
D|------10-----10-------10----10------10----|------10------10----10------10------10----|
A|---10-----10-----10------10---------------|---10----10------10------10----10------10-|
E|-8------------------------------8---------|-8---------------------8------------------|

                    G
I don't care if it hurts
                  B
I wanna have control
                   C
I wanna a perfect body
                   Cm
I wanna a perfect soul


[4ta ESTROFA]

   G                                         B
E|----------------3-------------------------|---------------7--------------------------|
B|----------------3-------------------------|-----------------7------------------------|
G|-----------4------4---4----4--------------|-----8----8--------8----8-----------------|
D|-----5---5----5-----5--------5------------|---9----9----9-------9----9---------------|
A|---5---5----------------------------------|----------------------------9-------------|
E|-3-----------------------3----------------|-7----------------------------------------|

   C                                        Cm
E|------------------8-----------------------|------------------------------------------|
B|--------------------8---------------------|---8-----------------8--------------------|
G|------9-----9---------9-----9-------------|-----8----8------------8----8----8--------|
D|---10----10----10-------10----10----------|-------10---10----10-----10--------10-----|
A|---------------------------------10-------|---------------10-------------------------|
E|-8----------------------------------------|-8-----------------------------8----------|

               G
I want you to notice
               B
When I'm not around
                    C
You're so fucking special
               Cm
I wish I was special


[2do CORO]

(Solo de guitarra)

E|----------------------------------------------------|
B|----------------------------------------------------|
G|-4----8----5...--7...--8...--10...------------------|
D|-5----9---------------------------------------------|
A|-5----9----3...--5...--6...--8-...------------------|
E|-3----7---------------------------------------------|

            G
But I'm a creep
       B
I'm a weirdo
                          C
What the hell am I doing here?
            Cm
I don't belong here


[INTERLUDIO]

(Solo de guitarra)

E|----------------------------------------------------|
B|----------------------------------------------------|
G|-12...--8...--11...--9...--12...--8...--17...-------|
D|----------------------------------------------------|
A|-10...--6...--9-...--7...--10...--6...--15...-------|
E|----------------------------------------------------|

E|----------------------------------------------------|
B|----------------------------------------------------|
G|-16...-12...-11...--14...--12...--9...--8~~\5~~\4---|
D|----------------------------------------------------|
A|-14...-10...-9-...--12...--10...--7...--6~~\3~~\2---|
E|----------------------------------------------------|

  G                        B
She's running out the door
  C
She's running out
     Cm                G  B
She run, run, run, run
 C  Cm
Run


[5ta ESTROFA]

   G                                         B
E|------------------------------------------|------------------------------------------|
B|------------------------------------------|------------------------------------------|
G|-----------4--------------4---------------|-----------8--------------8---------------|
D|-----5---5----5-----5---5----5------------|-----9---9----9-----9---9----9------------|
A|---5---5--------5-----5-------------------|---9---9--------9-----9-------------------|
E|-3----------------3-----------------------|-7----------------7-----------------------|

   C                                        Cm
E|------------------------------------------|------------------------------------------|
B|------------------------------------------|------------------------------------------|
G|---------------9-------------------9------|---------------8-------------------8------|
D|------10----10----10------10----10----10--|------10----10----10------10----10--------|
A|---10----10----------10------10-----------|---10----10----------10------10-----------|
E|-8----------------------8-----------------|-8----------------------8-----------------|

                    G
Whatever makes you happy
              B
Whatever you want
             C
So fucking special
               Cm
I wish I was special


[3er CORO]

   G                                         B
E|----------------3--------3----------------|----------------7-------------------------|
B|------------------3------3----------------|-----------7----7-------------------------|
G|-----4----4-4-------4------4--------------|-----8---8----8---8---8----8--------------|
D|---5---5------5-------5------5------------|---9---9------------9--------9------------|
A|------------------------------------------|------------------------------------------|
E|-3----------------------------------------|-7-----------------------7----------------|

   C                                        Cm
E|------------------8-----------------------|------------------------------------------|
B|-----8------------8-8---8-----8-----------|------------------------------------------|
G|---9---8----9---------9---------9---------|-8----------------------------------------|
D|---------10----10----------10-------------|-10---------------------------------------|
A|------------------------------------------|-10---------------------------------------|
E|-8----------------------------------------|-8----------------------------------------|

            G
But I'm a creep
       B
I'm a weirdo
                          C
What the hell am I doing here?
           Cm
I don't belong here
           G
I don't belong here

            
            
Suggest correction
Creating personal tab
Creating personal tab
You can edit any tab online and save it as your Personal.

You can edit, replace or remove any tab part or add personal notes – all changes will be seen only by you.

Personal tabs can be accessed anytime from any device, even offline.
Learn more »
comments
print report bad tab
guest
You may want to rate the tab now too:
select rating
Wanna post a correction for this tab? Suggest correction