Oops, an error
Loading. Please wait.
We have Chord Pro version of Daydreaming.
It's the closest thing you can get to the original song and it has interactive parts. Check out the tab »
×

Daydreaming tab

18,997 views 150 this week
1 commentread comment
1 2 3 4 5
x 20
add to favorites
×
Save as Personal and add changes to this tab that will be seen only by you. Learn more ›
×
You can save this tab as Personal to edit and correct it or add notes. All changes will be seen only by you. Learn more »
launch autoscroll
font size
0
reset
how to read this tab
guitar tuner
backing track
0:00
0:00
edit
Autoscroll
slow
fast
+/-
esc
set tempo
stop
Author
[Intro]

Piano line 1:
e|-5-----5-----5-----5-----|-3-----3-----3-----3-----|-3-----3-----3-----3-----|-5-----5-----5-----5-----|
B|-----5-----5-----5-----5-|-----3-----3-----3-----3-|-----3-----3-----3-----3-|-----5-----5-----5-----5-|
G|---7-----7-----7-----7---|---5-----5-----5-----5---|---5-----5-----5-----5---|---7-----7-----7-----7---|
D|-------------------------|-------------------------|-------------------------|-------------------------|
A|-------------------------|-------------------------|-------------------------|-------------------------|
E|-------------------------|-------------------------|-------------------------|-------------------------|

Bass line 1:
e|-------------------------|-------------------------|-------------------------|-------------------------|
B|-------------------------|-------------------------|-------------------------|-------------------------|
G|-------------------------|-------------------------|-------------------------|-------------------------|
D|-------------------------|-------------------------|-------------------------|-------------------------|
A|-------------------------|-------------------------|-------------------------|-------------------------|
E|-5--5--5--5--5--5--5--5--|-1--1--1--1--1--1--1--1--|-0--0--0--0--0--0--0--0--|-1--1--1--1--1--1--1--1--|


Piano line 2:
e|-5-----5-----5-----5-----|-3-----3-----3-----3-----|-3-----3-----3-----3-----|-1-----1-----1-----1-----|
B|-----5-----5-----5-----5-|-----3-----3-----3-----3-|-----3-----3-----3-----3-|-----1-----1-----1-----1-|
G|---7-----7-----7-----7---|---5-----5-----5-----5---|---5-----5-----5-----5---|---3-----3-----3-----3---|
D|-------------------------|-------------------------|-------------------------|-------------------------|
A|-------------------------|-------------------------|-------------------------|-------------------------|
E|-------------------------|-------------------------|-------------------------|-------------------------|

Bass line 2:
e|-------------------------|-------------------------|-------------------------|-------------------------|
B|-------------------------|-------------------------|-------------------------|-------------------------|
G|-------------------------|-------------------------|-------------------------|-------------------------|
D|-------------------------|-------------------------|-------------------------|-------------------------|
A|-------------------------|-------------------------|-------------------------|-5--5--5--5--5--5--5--5--|
E|-5--5--5--5--5--5--5--5--|-1--1--1--1--1--1--1--1--|-0--0--0--0--0--0--0--0--|-------------------------|


Piano line 3:
e|-1-----1-----3-----3-----|-1-----1-----3-----0-1-3-|
B|-----1-----1-----1-----1-|-----1-----1---1-3-------|
G|---4-----4-----4-----4---|---4-----4---------------|
D|-------------------------|-------------------------|
A|-------------------------|-------------------------|
E|-------------------------|-------------------------|

Bass line 3:
e|-------------------------|-------------------------|
B|-------------------------|-------------------------|
G|-------------------------|-------------------------|
D|-------------------------|-------------------------|
A|-------------------------|-------------------------|
E|-3--3--3--3--3--3--3--3--|-3--3--3--3--3--3--------|


[Verse 1]

e|-5-----5-----5-----5-----|-3-----3-----3-----3-----|-3-----3-----3-----3-----|-5-----5-----5-----5-----|
B|-----5-----5-----5-----5-|-----3-----3-----3-----3-|-----3-----3-----3-----3-|-----5-----5-----5-----5-|
G|---7-----7-----7-----7---|---5-----5-----5-----5---|---5-----5-----5-----5---|---7-----7-----7-----7---|
D|-------------------------|-------------------------|-------------------------|-------------------------|
A|-------------------------|-------------------------|-------------------------|-------------------------|
E|-------------------------|-------------------------|-------------------------|-------------------------|
   Dreamers,            they never learn,         they never                     learn


e|-5-----5-----5-----5-----|-3-----3-----3-----3-----|-3-----3-----3-----3-----|-5-----5-----5-----5-----|
B|-----5-----5-----5-----5-|-----3-----3-----3-----3-|-----3-----3-----3-----3-|-----5-----5-----5-----5-|
G|---7-----7-----7-----7---|---5-----5-----5-----5---|---5-----5-----5-----5---|---7-----7-----7-----7---|
D|-------------------------|-------------------------|-------------------------|-------------------------|
A|-------------------------|-------------------------|-------------------------|-------------------------|
E|-------------------------|-------------------------|-------------------------|-------------------------|
   Beyond the point,      of no return,             of no re-                    -turn


e|-5-----5-----5-----5-----|-3-----3-----3-----3-----|-3-----3-----3-----3-----|
B|-----5-----5-----5-----5-|-----3-----3-----3-----3-|-----3-----3-----3-----3-|
G|---7-----7-----7-----7---|---5-----5-----5-----5---|---5-----5-----5-----5---|
D|-------------------------|-------------------------|-------------------------|
A|-------------------------|-------------------------|-------------------------|
E|-------------------------|-------------------------|-------------------------|
And it's too late,       the damage is done,       the damage               


[Interlude]

e|-5-----------5-----------|-5-----------5-----------|-5-----------5-----------|-5-----------5-----------|
B|-------7-5-----7-----5-7-|-------7-5-----7-----5-7-|-------6-5-----6-----5-6-|-------6-5-----6-----5-6-|
G|---6-7-----6-----7-6-----|---6-7-----6-----7-6-----|---5-7-----5-----7-5-----|---5-7-----5-----7-5-----|
D|-------------------------|-------------------------|-------------------------|-------------------------|
A|-------------------------|-------------------------|-------------------------|-------------------------|
E|-------------------------|-------------------------|-------------------------|-------------------------|
is done

e|-5-----------5-----------|-5-----------5-----------|-5-----------5-----------|-5-----------5-----------|
B|-------7-5-----7-----5-7-|-------6-5-----6-----5-6-|-------6-5-----6-----5-6-|-------6-5-----6-----5-6-|
G|---4-7-----4-----7-4-----|-----7-----------7-------|---5-7-----5-----7-5-----|---5-7-----5-----7-5-----|
D|-------------------------|---8-------8-------8-----|-------------------------|-------------------------|
A|-------------------------|-------------------------|-------------------------|-------------------------|
E|-------------------------|-------------------------|-------------------------|-------------------------|


[Verse 2]

e|-5-----5-----5-----5-----|-3-----3-----3-----3-----|-3-----3-----3-----3-----|-5-----5-----5-----5-----|
B|-----5-----5-----5-----5-|-----3-----3-----3-----3-|-----3-----3-----3-----3-|-----5-----5-----5-----5-|
G|---7-----7-----7-----7---|---5-----5-----5-----5---|---5-----5-----5-----5---|---7-----7-----7-----7---|
D|-------------------------|-------------------------|-------------------------|-------------------------|
A|-------------------------|-------------------------|-------------------------|-------------------------|
E|-------------------------|-------------------------|-------------------------|-------------------------|
   This goes,              beyond me,                beyond you

e|-5-----5-----5-----5-----|-3-----3-----3-----3-----|-3-----3-----3-----3-----|-5-----5-----5-----5-----|
B|-----5-----5-----5-----5-|-----3-----3-----3-----3-|-----3-----3-----3-----3-|-----5-----5-----5-----5-|
G|---7-----7-----7-----7---|---5-----5-----5-----5---|---5-----5-----5-----5---|---7-----7-----7-----7---|
D|-------------------------|-------------------------|-------------------------|-------------------------|
A|-------------------------|-------------------------|-------------------------|-------------------------|
E|-------------------------|-------------------------|-------------------------|-------------------------|
The white room,           by window,         where the sun goes                  through

e|-5-----5-----5-----5-----|-3-----3-----3-----3-----|-3-----3-----3-----3-----|
B|-----5-----5-----5-----5-|-----3-----3-----3-----3-|-----3-----3-----3-----3-|
G|---7-----7-----7-----7---|---5-----5-----5-----5---|---5-----5-----5-----5---|
D|-------------------------|-------------------------|-------------------------|
A|-------------------------|-------------------------|-------------------------|
E|-------------------------|-------------------------|-------------------------|
We are                  just happy to serve,      just happy to serve


[Interlude]

e|-5-----------5-----------|-5-----------5-----------|-5-----------5-----------|-5-----------5-----------|
B|-------7-5-----7-----5-7-|-------7-5-----7-----5-7-|-------6-5-----6-----5-6-|-------6-5-----6-----5-6-|
G|---6-7-----6-----7-6-----|---6-7-----6-----7-6-----|---5-7-----5-----7-5-----|---5-7-----5-----7-5-----|
D|-------------------------|-------------------------|-------------------------|-------------------------|
A|-------------------------|-------------------------|-------------------------|-------------------------|
E|-------------------------|-------------------------|-------------------------|-------------------------|
   you

e|-5-----------5-----------|-5-----------5-----------|-5-----------5-----------|-5-----------5-----------|
B|-------7-5-----7-----5-7-|-------6-5-----6-----5-6-|-------6-5-----6-----5-6-|-------6-5-----6-----5-6-|
G|---4-7-----4-----7-4-----|-----7-----------7-------|---5-7-----5-----7-5-----|---5-7-----5-----7-5-----|
D|-------------------------|---8-------8-------8-----|-------------------------|-------------------------|
A|-------------------------|-------------------------|-------------------------|-------------------------|
E|-------------------------|-------------------------|-------------------------|-------------------------|


            
            
Suggest correction
Creating personal tab
Creating personal tab
You can edit any tab online and save it as your Personal.

You can edit, replace or remove any tab part or add personal notes – all changes will be seen only by you.

Personal tabs can be accessed anytime from any device, even offline.
Learn more »
comments
print report bad tab
1 comment total.
+1 reply
pmalavi 7,574 May 25, 2016 10:33 PM

Credit to Manupllc for transcribing the interlude from piano to guitar.

guest
You may want to rate the tab now too:
select rating
Wanna post a correction for this tab? Suggest correction