Oops, an error
Loading. Please wait.
We have Chord Pro version of Daydreaming.
It's the closest thing you can get to the original song and it has interactive parts. Check out the tab »
×

Daydreaming tab

214 views 3 this week
no commentswrite comment
1 2 3 4 5
3 more votes to show rating
add to favorites
×
Save as Personal and add changes to this tab that will be seen only by you. Learn more ›
×
You can save this tab as Personal to edit and correct it or add notes. All changes will be seen only by you. Learn more »
launch autoscroll
font size
0
reset
how to read this tab
guitar tuner
backing track
0:00
0:00
edit
Autoscroll
slow
fast
+/-
esc
set tempo
stop
Note that, to do this I tuned my up a halfstep to an f because I thought it sounded better to get the 
low f over the e and made the last part possible to play.

radiohead - daydreaming
shitty tab for trying to play it solo
bradley laney

so the notes in the treble here are sorta triplets over the steady bass, no rythym is indicated by
the dashes. it's kinda on you to get listen and feel for it. 

[Intro]
!!! NOT IN STANDARD TUNING !!! tune your low e up to an f and have fun people                              
e|----------|----------|----------|----------|----------|----------|----------|----------|
B|10--------|10--------|10--------|10--------|10--------|10--------|10--------|10--------|
G|----7--9--|----7--9--|----7--9--|----7--9--|----7--9--|----7--9--|----7--9--|----7--9--|
D|----------|----------|----------|----------|----------|----------|----------|----------|
A|----------|----------|----------|----------|0----0----|0----0----|0----0----|0----0----|
F|0----0----|0----0----|0----0----|0----0----|----------|----------|----------|----------|

  
e|----------|----------|----------|----------|----------|----------|----------|----------|
B|8---------|8---------|8---------|8---------|8---------|8---------|8---------|8---------|
G|----5--7--|----5--7--|----5--7--|----5--7--|----5--7--|----5--7--|----5--7--|----5--7--|
D|----------|----------|----------|----------|----------|----------|----------|----------|
A|----------|----------|----------|----------|7----7----|7----7----|7----7----|7----7----|
F|0----0----|0----0----|0----0----|0----0----|----------|----------|----------|----------|
 

e|----------|----------|----------|----------|----------|----------|----------|----------|
B|10--------|10--------|10--------|10--------|10--------|10--------|10--------|10--------|
G|----7--9--|----7--9--|----7--9--|----7--9--|----7--9--|----7--9--|----7--9--|----7--9--|
D|----------|----------|----------|----------|----------|----------|----------|----------|
A|----------|----------|----------|----------|0----0----|0----0----|0----0----|0----0----|
F|0----0----|0----0----|0----0----|0----0----|----------|----------|----------|----------|


e|----------|----------|----------|----------|----------|----------|----------|----------|
B|8---------|8---------|8---------|8---------|8---------|8---------|8---------|8---------|
G|----5--7--|----5--7--|----5--7--|----5--7--|----5--7--|----5--7--|----5--7--|----5--7--|
D|----------|----------|----------|----------|----------|----------|----------|----------|
A|----------|----------|----------|----------|7----7----|7----7----|7----7----|7----7----|
F|0----0----|0----0----|0----0----|0----0----|----------|----------|----------|----------|


e|----------|----------|----------|----------|----------|----------|3---------|3---------|
B|6---------|6---------|6---------|6---------|6---------|6---------|----------|----------|
G|----3--5--|----3--5--|----3--5--|----3--5--|----4--5--|----4--5--|----4--5--|----4--5--|
D|0----0----|0----0----|0----0----|0----0----|----------|----------|----------|----------|
A|----------|----------|----------|----------|----------|----------|----------|----------|
F|----------|----------|----------|----------|2----2----|2----2----|2----2----|2----2----|


e|----------|----------|3---------|3---------|----------|----------|3---------|----------|
B|6---------|6---------|----------|----------|6---------|6---------|----------|3--5--6---|
G|----4--5--|----4--5--|----4--5--|----4--5--|----4--5--|----4--5--|----4--5--|----------|
D|----------|----------|----------|----------|----------|----------|----------|----------|
A|----------|----------|----------|----------|----------|----------|----------|----------|
F|2----2----|2----2----|2----2----|2----2----|2----2----|2----2----|2----2----|2----2----|

[Verse]
repeat this pattern:
e|----------|----------|----------|----------|----------|----------|----------|----------|
B|10--------|10--------|10--------|10--------|8---------|8---------|8---------|8---------|
G|----7--9--|----7--9--|----7--9--|----7--9--|----5--7--|----5--7--|----5--7--|----5--7--|
D|----------|----------|----------|----------|----------|----------|----------|----------|
A|0----0----|0----0----|0----0----|0----0----|----------|----------|----------|----------|
F|----------|----------|----------|----------|0----0----|0----0----|0----0----|0----0----|


e|----------|----------|----------|----------|----------|----------|----------|----------|
B|8---------|8---------|8---------|8---------|10--------|10--------|10--------|10--------|
G|----5--7--|----5--7--|----5--7--|----5--7--|----7--9--|----7--9--|----7--9--|----7--9--|
D|----------|----------|----------|----------|----------|----------|----------|----------|
A|7----7----|7----7----|7----7----|7----7----|----------|----------|----------|----------|
F|----------|----------|----------|----------|0----0----|0----0----|0----0----|0----0----|

[Bridge/fun part]**
e|------------------|-----------------|
B|-10---------------|10---------------|
G|----------11-9----|---11-------9-11-|
D|----11-12------11-|------12-11------|
A|-0----------------|0----------------|
F|------------------|-----------------|

e|------------------|-----------------|
B|-10---------------|10---------------|
G|----------11-9----|---11-------9-11-|
D|----11-12------11-|------12-11------|
A|-0----------------|0----------------|
F|------------------|-----------------|

e|------------------|-----------------|
B|-10---------------|10---------------|
G|----------10-9----|---10-------9-10-|
D|----10-12------10-|------12-10------|
A|-0----------------|0----------------|
F|------------------|-----------------|

e|------------------|-----------------|
B|-10---------------|10---------------|
G|----------10-9----|---10-------9-10-|
D|----10-12------10-|------12-10------|
A|-0----------------|0----------------|
F|------------------|-----------------|

e|------------------|-----------------|
B|-10---------------|10---------------|
G|----------11--9---|---11------9-11--|
D|----9-12--------9-|------12-9-------|
A|-0----------------|0----------------|
F|------------------|-----------------|

e|------------------|-----------------|
B|-10---------------|10---------------|
G|----------10--9---|---10------9-10--|
D|----8-12--------8-|------12-8-------|
A|------------------|-----------------|
F|------------------|-----------------|

e|------------------|-----------------|
B|-10---------------|10---------------|
G|----------11-9----|---11-------9-11-|
D|----11-12------11-|------12-11------|
A|------------------|-----------------|
F|-0----------------|0----------------|

e|------------------|-----------------|
B|-10---------------|10---------------|
G|----------11-9----|---11-------9-11-|
D|----11-12------11-|------12-11------|
A|------------------|-----------------|
F|-0----------------|0----------------|

**one fun way to play this is to muffle your DGBe strings when they're open with something 
  shoved up under them and so you can just heavily strum all the strings as you 
  play the pattern in the bridge (while being careful to hit the low F only on the last
  pattern).

            
            
Suggest correction
Creating personal tab
Creating personal tab
You can edit any tab online and save it as your Personal.

You can edit, replace or remove any tab part or add personal notes – all changes will be seen only by you.

Personal tabs can be accessed anytime from any device, even offline.
Learn more »
Give kudos to tab author, rate the tab!
1 2 3 4 5
comments
print report bad tab
guest
You may want to rate the tab now too:
select rating
Wanna post a correction for this tab? Suggest correction