Oops, an error
Loading. Please wait.

Decks Dark bass

version 1
version 1

Whole song

Interactive

1,018 views 3 this week
no commentswrite comment
1 2 3 4 5
x 3
add to favorites
×
Save as Personal and add changes to this tab that will be seen only by you. Learn more ›
×
You can save this tab as Personal to edit and correct it or add notes. All changes will be seen only by you. Learn more »
launch autoscroll
font size
0
reset
guitar tuner
backing track
0:00
0:00
edit
Autoscroll
slow
fast
+/-
esc
set tempo
stop
Author
My favorite song on the new album, very easy to play. 
I'd love to play it on piano but someone more skilled than I will have to post a video before that happens...
Most of the notes are played half a beat before each measure (on 4 "and"...), 
but for simplicity's sake I am listing the notes inside each measure.


[First Verse: Doesn't really have bass but you can play whole notes here]

G|------|------|------|------|------|
D|------|------|------|------|------|
A|--5---|--1---|------|--5---|--5---|
E|------|------|--3---|------|------|
And in your life, there comes a darkness

G|------|------|------|------|------|------|------|------|------|
D|------|------|------|------|------|------|------|------|------|
A|------|--1---|--0---|--5---|--5---|--1---|------|--5---|--5---|
E|--1---|------|------|------|------|------|--3---|------|------|
There's a spacecraft, blocking out the sky. And there's nowhere, to hide.

G|------|------|------|------|------|------|------|------|------|
D|------|------|------|------|------|------|------|------|------|
A|------|--1---|--0---|--5---|--5---|--1---|------|--5---|--5---|
E|--1---|------|------|------|------|------|--3---|------|------|
You run to the back, and you cover your ears.  But it's the loudest sound, you've ever heard.

G|------|------|------|------|------|------|------|------|------|
D|------|------|------|------|------|------|------|------|------|
A|------|--1---|--0---|--5---|--5---|--1---|------|--5---|--5---|
E|--1---|------|------|------|------|------|--3---|------|------|
Are we trapped, rag doll cloth people.  We are helpless, to resist.

G|------|------|------|------|
D|------|------|------|------|
A|------|------|--6---|--6---|
E|--1---|--1---|------|------|
In your darkest hour


[Chorus]

G|------|--2---|------|--2---|------|--3---|------|------|
D|------|------|------|------|------|------|------|------|
A|--0---|------|--0---|------|--1---|------|------|--1---|
E|------|------|------|------|------|------|--3---|------|

G|------|--2---|------|--2---|------|--3---|------|------|
D|------|------|------|------|------|------|------|------|
A|--0---|------|--0---|------|--1---|------|------|--1---|
E|------|------|------|------|------|------|--3---|------|

G|------|--2---|------|--2---|------|--3---|------|------|
D|------|------|------|------|------|------|------|------|
A|--0---|------|--0---|------|--1---|------|------|--1---|
E|------|------|------|------|------|------|--3---|------|
But it was just a laugh, just a lie, just a laugh, just a lie,
even at this angle, and so we crumble

G|------|--2---|------|--2---|------|--3---|------|------|
D|------|------|------|------|------|------|------|------|
A|--0---|------|--0---|------|--1---|------|------|--1---|
E|------|------|------|------|------|------|--3---|------|
Still turning heads, you know where it's at, this dread still covers us, 
you gotta be kidding me, the grass grows over me

G|------|--2---|------|--2---|------|--3---|------|------|
D|------|------|------|------|------|------|------|------|
A|--0---|------|--0---|------|--1---|------|------|--1---|
E|------|------|------|------|------|------|--3---|------|
Your face in the glass, in the glass, it was just a laugh, just a laugh,
it's whatever you say it is, split infinitive


[Verse 2: at 2:30, bass starts going off]

G|----------|------------|------------|--------------|--------------|
D|----------|------------|------------|--------------|--------------|
A|--5-----3-|--1-----1-0-|------------|--5-----5-3-5-|--5-----3-5-3-|
E|----------|------------|--3---------|--------------|--------------|
And in your life, there comes a darkness

G|----------|------------|------------|--------------|--------------|
D|----------|------------|------------|--------------|--------------|
A|----------|--1---------|--0---------|--5-----------|--5-----------|
E|--1-------|------------|----------3-|--------------|--------------|
There's a spacecraft, blocking out the sky

G|----------|------------|------------|----------------|
D|----------|------------|------------|----------------|
A|--1-------|------------|--5-----5-3-|--3-5-3-5-3-----|
E|----------|--1-3-------|------------|------------5-3-|
And there's nowhere, to hide

G|--------------|------------|--------------|----------|-----------|
D|--------------|------------|--------------|----------|-----------|
A|------------3-|--1---1---3-|--0-----3---3-|--5-------|--5------0-|
E|--1----1-1----|--------3---|----------3---|----------|-----------|
You run to the back, and you cover your ears

G|--------------|------------|--------------|--------------|
D|--------------|------------|--------------|--------------|
A|--1-----------|------------|--5-----------|--5-----5-3-5-|
E|--------------|--3---------|--------------|--------------|
But it's the loudest sound, you've ever heard

G|--------|--------|--------|--------|--------------------------|
D|--------|--------|--------|--------|--------------------------|
A|--------|--------|--6-----|--6-----|--5---|--5---|--5---|--5--|
E|--1-----|--1-----|--------|--------|--------------------------|
In your darkest hour


[Outro]

G||------------|------------|--------------|--------||
D||------------|------------|--------------|--------||
A||----------5-|--3-------5-|--3-----3-0---|--------||
E||--5-----3---|--------3---|------------3-|--0-----||
[play this 10 times, then end on E]



As Chords:
Verse:
   Lead in: D A# G D D
   F A# A D D   A# G D D   3x in first verse
   Lead out: F F D# D#

Chorus:
   A A A A A# A# G A#   2x instrumental, then 3x with vocals

Verse:
   Lead in: D A# G D D
   F A# A D D   A# G D D   2x in second verse
   Lead out: F F D# D# D D D D

Outro:
   A  (GD)C   (GD)C  (CAG)E   10x


************************************

            
            
Suggest correction
Creating personal tab
Creating personal tab
You can edit any tab online and save it as your Personal.

You can edit, replace or remove any tab part or add personal notes – all changes will be seen only by you.

Personal tabs can be accessed anytime from any device, even offline.
Learn more »
Give kudos to tab author, rate the tab!
1 2 3 4 5
comments
print report bad tab
guest
You may want to rate the tab now too:
select rating
Wanna post a correction for this tab? Suggest correction