Oops, an error
Loading. Please wait.

Decks Dark tab

version 1
version 1

Whole song

Interactive

15,658 views 138 this week
1 commentread comment
1 2 3 4 5
x 21
add to favorites
×
Save as Personal and add changes to this tab that will be seen only by you. Learn more ›
×
You can save this tab as Personal to edit and correct it or add notes. All changes will be seen only by you. Learn more »
launch autoscroll
font size
0
reset
how to read this tab
guitar tuner
backing track
0:00
0:00
edit
Autoscroll
slow
fast
+/-
esc
set tempo
stop
Capo 5th fret


[Verse 1]

     A       Fmaj7   Dsus2   A/C#                       
e|---0-------0-------0-------0---------|
B|-----2-------1-------3-------2-------|
G|-------2-------2-------2-------2-----|
D|---------2-------3-------0-----------|
A|---------------------------------4---|
E|-------------------------------------|  

    A            Fmaj7       Dsus2   A/C#
And in your life ----- there comes a darkness


     Fmaj7   G6      Dsus2   A/C#                       
e|---0-------0-------0-------0---------|
B|-----1-------3-------3-------2-------|
G|-------2-------0-------2-------2-----|
D|---------3-------0-------0-----------|
A|---------------------------------4---|
E|-------------------------------------|

          Fmaj7     G6         Dsus2   A/C#
There’s a spacecraft, blocking out the sky

     Fmaj7    Dsus2   A/C#                       
e|---0--------0-------0---------|
B|-----1--------3-------2-------|
G|-------2--------2-------2-----|
D|---------3--------0-----------|
A|--------------------------4---|
E|------------------------------|

    Fmaj7           Dsus2    A/C#
And there's nowhere ----- to hide


     Fmaj7   G6      Dsus2   A/C#                       
e|---0-------0-------0-------0---------|
B|-----1-------3-------3-------2-------|
G|-------2-------0-------2-------2-----|
D|---------3-------0-------0-----------|
A|---------------------------------4---|
E|-------------------------------------|

    Fmaj7          G6        Dsus2      A/C#
You run to the back, and you cover your ears


     Fmaj7    Dsus2   A/C#                       
e|---0--------0-------0---------|
B|-----1--------3-------2-------|
G|-------2--------2-------2-----|
D|---------3--------0-----------|
A|--------------------------4---|
E|------------------------------|

             Fmaj7         Dsus2             A/C#
But it's the loudest sound ----- you've ever heard


     Fmaj7   G6      Dsus2   A/C#                       
e|---0-------0-------0-------0---------|
B|-----1-------3-------3-------2-------|
G|-------2-------0-------2-------2-----|
D|---------3-------0-------0-----------|
A|---------------------------------4---|
E|-------------------------------------|

Fmaj7         G6    Dsus2      A/C#
Are we trapped, rag doll cloth people


     Fmaj7    Dsus2   A/C#                       
e|---0--------0-------0---------|
B|-----1--------3-------2-------|
G|-------2--------2-------2-----|
D|---------3--------0-----------|
A|--------------------------4---|
E|------------------------------|

       Fmaj7    Dsus2      A/C#
We are helpless ----- to resist

       F        A#       E                       
e|------------------------------|
B|-----1--------3---------------|
G|-----2--------3--------1------|
D|-----3--------3--------2------|
A|-----3--------1--------2------|
E|-----------------------0------|

F       A#      E
In your darkest hour


[Chorus]

     E       C/G       F        Dm               
e|-------------------------------------|
B|------------------------------3------|
G|---1--------0--------2--------2------|
D|---2--------2--------3--------0------|
A|---2--------3--------0--------0------|
E|---0--------3--------1---------------|

E  C/G  F  Dm
E  C/G  F  Dm

                  E                             C/G
But it was just a laugh, just a lie, just a laugh, just a lie
             F 
Even at this angle
          Dm
And so we crumble
              E                                       C/G    
Still turning heads, you know where it's at, this dread still covers us
             F
You gotta be kidding me
                Dm
The grass grows over me
                 E                                      C/G
Your face in the glass, in the glass, it was just a laugh, just a laugh
                  F
It's whatever you say it is
        Dm
Split infinitive


[Verse 2]

     A       Fmaj7   Dsus2   A/C#                       
e|---0-------0-------0-------0---------|
B|-----2-------1-------3-------2-------|
G|-------2-------2-------2-------2-----|
D|---------2-------3-------0-----------|
A|---------------------------------4---|
E|-------------------------------------|  

    A            Fmaj7       Dsus2   A/C#
And in your life ----- there comes a darkness


     Fmaj7   G6      Dsus2   A/C#                       
e|---0-------0-------0-------0---------|
B|-----1-------3-------3-------2-------|
G|-------2-------0-------2-------2-----|
D|---------3-------0-------0-----------|
A|---------------------------------4---|
E|-------------------------------------|

          Fmaj7     G6         Dsus2   A/C#
There’s a spacecraft, blocking out the sky

     Fmaj7    Dsus2   A/C#                       
e|---0--------0-------0---------|
B|-----1--------3-------2-------|
G|-------2--------2-------2-----|
D|---------3--------0-----------|
A|--------------------------4---|
E|------------------------------|

    Fmaj7           Dsus2    A/C#
And there's nowhere ----- to hide


     Fmaj7   G6      Dsus2   A/C#                       
e|---0-------0-------0-------0---------|
B|-----1-------3-------3-------2-------|
G|-------2-------0-------2-------2-----|
D|---------3-------0-------0-----------|
A|---------------------------------4---|
E|-------------------------------------|

    Fmaj7          G6        Dsus2      A/C#
You run to the back, and you cover your ears


     Fmaj7    Dsus2   A/C#                       
e|---0--------0-------0---------|
B|-----1--------3-------2-------|
G|-------2--------2-------2-----|
D|---------3--------0-----------|
A|--------------------------4---|
E|------------------------------|

             Fmaj7         Dsus2             A/C#
But it's the loudest sound ----- you've ever heard


       F        A#       E                       
e|------------------------------|
B|-----1--------3---------------|
G|-----2--------3--------1------|
D|-----3--------3--------2------|
A|-----3--------1--------2------|
E|-----------------------0------|

F       A#      E
In your darkest hour


[Outro]

     E5
e|--------------------------------------|
B|--------------------------------------|
G|----------2-0---x--2-0---x--2-4---x---|
D|---2---x--2-2---x--2-2---x--2-4---x---| x10 (end on E5)
A|---2---x----------------------2---x---|
E|---0---x--0-0---x--0-0---x--0---------|


            
            
Suggest correction
Creating personal tab
Creating personal tab
You can edit any tab online and save it as your Personal.

You can edit, replace or remove any tab part or add personal notes – all changes will be seen only by you.

Personal tabs can be accessed anytime from any device, even offline.
Learn more »
comments
print report bad tab
1 comment total.
+5 reply
LotusRevolution 981 May 09, 2016 08:48 AM

Yes. On behalf of the world, I thank you.

guest
You may want to rate the tab now too:
select rating
Wanna post a correction for this tab? Suggest correction