Oops, an error
Loading. Please wait.

Decks Dark bass

version 2
version 2

Whole song

Interactive

3,466 views 18 this week
no commentswrite comment
1 2 3 4 5
x 7
add to favorites
×
Save as Personal and add changes to this tab that will be seen only by you. Learn more ›
×
You can save this tab as Personal to edit and correct it or add notes. All changes will be seen only by you. Learn more »
launch autoscroll
font size
0
reset
guitar tuner
backing track
0:00
0:00
edit
Autoscroll
slow
fast
+/-
esc
set tempo
stop
Author
-------------------------------------------------------------------------------
                             Decks Dark - Radiohead
-------------------------------------------------------------------------------
Tabbed by: Andrew P
Tuning: Standard

Awesome bass line, way more of a faff to tab than I anticipated.
I've tabbed every random fill that happens during the outro so obviously you can don't have to 
follow it exactly. It did take ages though.

Feedback appreciated as per

No bass for most of the first chorus

Chorus 1(1.15):
G|----------------|----------------|
D|----------------|----------------|
A|1---------------|6---------------|
E|----------------|----------------|

Verse(1.21):
G|--------14------|--------14------|--------15------|----------------|
D|----------------|----------------|----------------|----------------|
A|12--------------|12--------------|13--------------|10------13------| x5
E|----------------|----------------|----------------|----------------|

Chorus 2(2.30):
G|----------------|----------------|----------------|----------------|----------------|
D|----------------|----------------|----------------|----------------|----------------|
A|5-----------5---|----------------|--------------3-|5---------3---5-|--3-5---5-3-5-0-|
E|----------------|6---------6-5-4-|3---------3-0---|--------0-------|----------------|

G|----------------|----------------|----------------|----------------|----------------|
D|----------------|----------------|----------------|----------------|----------------|
A|8---------8-7-5-|----------------|------------3---|5-------------5-|----5-----------|
E|----------------|6-----------6---|5---------3-----|----------------|----------------|

G|----------------|----------------|----------------|----------------|----------------|
D|----------------|----------------|----------------|----------------|----------------|
A|----------------|------------3-4-|5-------5-0---3-|--5---0-5-------|--------------3-|
E|6-----------0-1-|3---------3-----|----------------|----------1-3-0-|1-----------1---|

G|----------------|----------------|----------------|----------------|----------------|
D|----------------|----------------|----------------|----------------|----------------|
A|1-------------1-|0-----------3---|5-------------0-|--5-------------|----------------|
E|------------1---|----------3-----|----------------|------------5-5-|6---------0-1-2-|

G|----------------|----------------|----------------|----------------|----------------|
D|----------------|----------------|----------------|----------------|----------------|
A|----------------|5---------------|--------------1-|----------------|6---------------|
E|3---------------|----------------|----------------|----------------|----------------|

G|----------------|
D|----------------|
A|5---------------|
E|----------------|

Outro(3.23):
G|----------------|
D|------------5---|
A|--------0-7---7-|
E|----------------|

G|----------------|----------------|----------------|----------------|
D|----------------|----------------|----------------|------------5---|
A|0-------------5-|3-------------5-|3-----------3-5-|7---7---5-------|
E|----------3-5---|----------5-3---|----------0-----|----------------|

G|----------------|----------------|----------------|----------------|
D|------------5---|----------5-----|----------------|--------5-------|
A|0-------------5-|3-----------7-5-|3---------3-3-0-|7---7-5-----5---|
E|----------3-----|----------------|----------------|----------------|

G|----------------|--------------7-|----------5-----|----------------|
D|----------5-7-9\|------------7---|------------5---|----5---------5-|
A|0---------------|--3-------5-----|--------------7-|7-----7-0-5-7---|
E|----------------|----------------|----------------|----------------|

G|----------------|----------------|----------------|----------------|
D|----------------|------------5---|----------------|----------5-----|
A|0---------------|3-------------7-|3---------------|----7-5-7-----7-|
E|------------0-3-|----------------|------------0-0-|0---------------|

G|----------------|----------------|----------------|----------------|
D|7-----------5---|----------5-----|----------------|--------5-------|
A|--0-------7---7-|3-----------7-5-|3---------3-----|----5-7-----7---|
E|----------------|----------------|------------0-0-|0---------------|

G|----------------|----------------|----------------|----------------|
D|----------------|----------5-----|----------------|----5-----5---5-|
A|0-0-------------|3-----------7-5-|3---3-----3-----|--------7---7---|
E|----------0-0-0-|----------------|------------0-0-|0---------------|

G|----------------|----------------|----------------|----------------|
D|--5\--------5---|----------5-----|----------------|--------5-------|
A|7---0-0-------5-|3-----------7-5-|3---------3---0-|0---5-------7---|
E|----------------|--------0-------|----------------|----------------|

G|----------------|----------------|----------------|----------------|
D|----------------|----------5-----|----------------|--------5-------|
A|0-------------5-|3---------------|3---------------|7---5-------8---|
E|----------5-3---|------------3-5-|------------0-0-|----------------|

G|----------------|----------------|----------------|----------------|
D|----------5-----|----------5-----|----------------|--------5-----5-|
A|0-------0---7-5-|3-----3-----7-5-|3-----3---3-----|7---5-7-----7---|
E|----------------|----------------|------------0-0-|----------------|

G|----------------|----------------|----------------|----------------|
D|----------5-----|----------5-----|----------------|--------5-----7-|
A|0-------0---7-5-|3-----------7-5-|3-----3---5-----|7---5-7-----7---|
E|----------------|----------------|------------0-0-|----------------|

G|----------------|
D|----------------|
A|0---------------|
E|----------------|

************************************

| /   Slide up
| \   Slide down

************************************

            
            
Suggest correction
Creating personal tab
Creating personal tab
You can edit any tab online and save it as your Personal.

You can edit, replace or remove any tab part or add personal notes – all changes will be seen only by you.

Personal tabs can be accessed anytime from any device, even offline.
Learn more »
comments
print report bad tab
guest
You may want to rate the tab now too:
select rating
Wanna post a correction for this tab? Suggest correction