Oops, an error
Loading. Please wait.

Exit Music For A Film Tab

version 1
version 1

Whole song

Interactive

44,158 views 45 this week
no commentswrite comment
1 2 3 4 5
x 6
add to favorites
launch autoscroll
font size
0
reset
how to read this tab
guitar tuner
backing track
0:00
0:00
×
Best way to learn
"Exit Music For A Film"
Autoscroll
slow
fast
+/-
esc
set tempo
stop
Author
Exit Music (For a Film)
-----------------------

By Radiohead; from the L.P., ?O.K. Computer?.
Tabbed by Ewan Pettman.

This is my favourite track from what is possibly my favourite album that I?ve heard so far. I?ve found two 
of the tab for this, and since neither version sounded right, I came up with my own. It?s probably wrong 
one or two places, but it seems to work.

Hope you enjoy!

Bm Bsus2 Bsus4 Bm

Bm             F#
Wake from your sleep
D                    Am  Asus2
The drying of your tears
Bm         F#
Today we escape
F#    Bsus4 B
We  escape


Bm           F#
Pack and get dressed
D                        Am Asus2
Before your father hears us
Bm         F#          Bsus4 B
Before all Hell breaks loose


Am                  E   Em
Breathe, keep breathing
Bm              F#
Don?t lose your nerve
Am                  E   Em
Breathe, keep breathing
Bm                F#
I can?t do this alone


Bm        F#
Sing us a song
D                   Am Asus2
A song to keep us warm
Bm             F#            Bsus4 B
There?s such a chill, such a chill


Bm      F#
You can laugh
G           D
A spineless laugh
G            C     C7  F#
We hope your rules and wisdom choke you


Bm         F#     D             Am  Asus2
Now we are one in everlasting peace


Bm               F#             Bsus4 B
We hope that you choke that you choke
Bm               F#             Bsus4 B
We hope that you choke that you choke
Bm               F#             Bsus4 B
We hope that you choke that you choke

Chords:-

     Bm  Bsus2 Bsus4   F#    D     Am  Asus2   B     E
E----2-----2-----2-----2-----2-----0-----0-----2-----0-----|
B----3-----2-----5-----2-----3-----1-----0-----4-----0-----|
G----4-----4-----4-----3-----2-----2-----2-----4-----1-----|
D----4-----4-----4-----4-----0-----2-----2-----4-----2-----|
A----2-----2-----2-----4-----0-----0-----0-----2-----2-----|
E----2-----2-----2-----2-----x-----0-----0-----2-----0-----|

     Em    G     C     C7
E----0-----3-----0-----0-----|
B----0-----0-----1-----1-----|
G----0-----0-----0-----3-----|
D----2-----0-----2-----2-----|
A----2-----2-----3-----3-----|
E----0-----3-----0-----0-----|
Suggest correction
comments
print report bad tab
guest
You may want to rate the tab now too:
select rating
Wanna post a correction for this tab? Suggest correction