Oops, an error
Loading. Please wait.
We have Chord Pro version of Fake Plastic Trees.
It's the closest thing you can get to the original song and it has interactive parts. Check out the tab »
×
5,546 views 21 this week
no commentswrite comment
1 2 3 4 5
2 more votes to show rating
add to favorites
launch autoscroll
font size
0
reset
how to read this tab
guitar tuner
backing track
0:00
0:00
Autoscroll
slow
fast
+/-
esc
set tempo
stop
Author
Fake Plastic Trees - Solo (Live)
--------------
Key: b-bend
     x-muted
   T.P-tremolo
--------------
Guitar 1: Acoustic - Plays Chords
Guitar 2: Electric w/Distortion - Plays Tab
-------------- 
    A                              Asus4    A/F#                  
 
2:37            She looks like the real thing,
e|---0------------------------------0--0--x--0----------------------------|
B|---2------------------------------3--3--x--2----------------------------|
G|---2------------------------------2--2--x--2--4b6--4b6--4b6--4b6--------|
D|---2------------------------------2--2--x--0----------------------------|
A|---0------------------------------0--0--x--x----------------------------|
E|---x------------------------------x--x--x--2----------------------------|

     A/F#                           E6       Dsus2

                She tastes like the real thing,
e|---0----------0-------------------0--0--x-------------------------------|
B|---2----------2-------------------2--2--x-------------------------------|
G|---2----------2-------------------1--1--x---4v------4v------6v------7v--|
D|---0----------0-------------------2--2--x-------------------------------|
A|---x----------x-------------------2--2--x-------------------------------|
E|---2----------2-------------------0--0--x-------------------------------|

     Dsus2                          A        Dsus2
                                   
                        My fake plastic love,
                                  
e|------------------------------------------------------------------------|
B|------------------------------------------------------------------------|
G|----9v------11v----11r----------13b-13b-13b-13b-13b-13b-13b-13b-13b-13b-|
D|--------------------------------x---x---x---x---x---x---x---x---x---x---|
A|--------------------------------11--11--11--11--11--11--11--11--11--11--|
E|------------------------------------------------------------------------|

     Dsus2

e|--------------------x-x---------x-|
B|--------------------x-x---------x-|
G|-13b13b13b13b13b13b-x-x--14--14-x-|
D|-x--x--x--x--x--x---x-x--x---x--x-|
A|-11-11-11-11-11-11--x-x--12--12-x-|
E|--------------------x-x---------x-|

     A                              Asus4    A/F#
               
                      But I can't help the feeling,
T.P_______________________________________________________________________|
e|------------------------------------------------------------------------|
B|------------------------------------------------------------------------|
G|----14b--------------------------------------16b------------------------|
D|------------------------------------------------------------------------|
A|------------------------------------------------------------------------|
E|------------------------------------------------------------------------|

     A/F#                              E6   Dsus2

            I could blow through the ceil  -  ing,
T.P_______________________________________________________________________|
e|------------------------------------------------------------------------|
B|------------------------------------------------------------------------|
G|----17b-----------------19b-------------------21b-----------------------|
D|------------------------------------------------------------------------|
A|------------------------------------------------------------------------|
E|------------------------------------------------------------------------|
    
      A                                     Dsus2

                        If I just tu - rn and run,
T.P___________________________________________|
e|------------------------------------------------------------------------|
B|----19b-----------------------------------------------------------------|
G|------------------------21b-------------------14------------------------|
D|----------------------------------------------x-------------------------|
A|----------------------------------------------12------------------------|
E|------------------------------------------------------------------------|

     Dsus2

e|-----------x--0--x--0--0------------|
B|-----------x--3--x--3--3------------|
G|-----------x--2--x--2--2------------|
D|-----------x--0--x--0--0------------|
A|-----------x--x--x--x--x------------|
E|-----------x--x--x--x--x------------|

I'm fairly sure it's not 100% accurate, but its reasonably close.

_____________________________________________________________________________
_____________________________________________________________________________
Suggest correction
Give kudos to tab author, rate the tab!
1 2 3 4 5
comments
print report bad tab
guest
You may want to rate the tab now too:
select rating
Wanna post a correction for this tab? Suggest correction