Oops, an error
Loading. Please wait.

Ful Stop tab

version 2
version 2

Whole song

Interactive

2,479 views 45 this week
no commentswrite comment
1 2 3 4 5
x 3
add to favorites
×
Save as Personal and add changes to this tab that will be seen only by you. Learn more ›
×
You can save this tab as Personal to edit and correct it or add notes. All changes will be seen only by you. Learn more »
launch autoscroll
font size
0
reset
how to read this tab
guitar tuner
edit
Autoscroll
slow
fast
+/-
esc
set tempo
stop
Author
[Intro] Ed's parts looped over each other, re-triggered, with delay

e|---------------------------------------------------------------------------|
B|--12-12---11---------------------------------------------------------------|
G|--------------12----------------12-11-12-11-12-11-12-11--------------------|
D|---------------------------------------------------------------------------|
A|---------------------------------------------------------------------------|
E|---------------------------------------------------------------------------|

Next loop is likely same as above, pitch shifted up 2x speed with his Line 6 DL-4, here's the relative notes

e|--19-----------------------------------------------------------------------|
B|-----20-19-----------------------------------------------------------------|
G|---------------------------------------------------------------------------|
D|---------------------------------------------------------------------------|
A|---------------------------------------------------------------------------|
E|---------------------------------------------------------------------------|


[Verse] Just before the change "To be trapped in your ful stop"

e|--16-17-19-----------------------------------------------------------------|
B|---------------------------------------------------------------------------|
G|---------------------------------------------------------------------------|
D|---------------------------------------------------------------------------|
A|---------------------------------------------------------------------------|
E|---------------------------------------------------------------------------|

Jonny's Parts

e|---------------------------------------------------------------------------|
B|---------------------------------------------------------------------------|
G|---------------------------------------------------------------------------|
D|---------9---------9------------9------------------------------------------|
A|--9---9-----9---9-----9---7--7---------------------------------------------|
E|---------------------------------------------------------------------------|

Variation

e|---------------------------------------------------------------------------|
B|---------------------------------------------------------------------------|
G|---------------------------------------------------------------------------|
D|---------9---------9---------9---------------------------------------------|
A|--9---9-----9---9-----9---7-----10--9--------------------------------------|
E|---------------------------------------------------------------------------|

Overdubbed riff in left channel "All the good times"

x4
e|---------------------------------------------------------------------------|
B|---------------------------------------------------------------------------|
G|---------------------------------------------------------------------------|
D|---------------------------------------------------------------------------|
A|---------------------------------------------------------------------------|
E|--9--9--9--10---10---10---10--10-------------------------------------------|

x4
e|---------------------------------------------------------------------------|
B|---------------------------------------------------------------------------|
G|---------------------------------------------------------------------------|
D|---------------------------------------------------------------------------|
A|--10--10--10--9------9-----------------------------------------------------|
E|-----------------10-----10-------------------------------------------------|

Jonny's Solo

Capo 12th fret B and e strings with a partial capo. I'll just give relative notes to 
a full capo.

e|----------0---2-------0----------------------------------------------------|
B|-------3-----------3-------------------------------------------------------|
G|--4------------------------------------------------------------------------|
D|---------------------------------------------------------------------------|
A|---------------------------------------------------------------------------|
E|---------------------------------------------------------------------------|

e|----------0----------------------------------------------------------------|
B|-------3------(3)-----3-----3----------------------------------------------|
G|--4---------4--4---4-----2-----4-------------------------------------------|
D|---------------------------------------------------------------------------|
A|---------------------------------------------------------------------------|
E|---------------------------------------------------------------------------|


************************************

************************************

            
            
Suggest correction
Creating personal tab
Creating personal tab
You can edit any tab online and save it as your Personal.

You can edit, replace or remove any tab part or add personal notes – all changes will be seen only by you.

Personal tabs can be accessed anytime from any device, even offline.
Learn more »
Give kudos to tab author, rate the tab!
1 2 3 4 5
comments
print report bad tab
guest
You may want to rate the tab now too:
select rating
Wanna post a correction for this tab? Suggest correction