Oops, an error
Loading. Please wait.

High And Dry Tab

version 1
version 1

Solo

Whole song

Video

450,125 views 810 this week
7 commentsread comments
1 2 3 4 5
accurate
x 19
add to favorites
launch autoscroll
font size
0
reset
how to read this tab
guitar tuner
Tab Pro tools
  • play this tab
  • loop segment
  • change instrument
  • show fretboard
  • metronome
×
Best way to learn
"High And Dry"
Autoscroll
slow
fast
+/-
esc
set tempo
stop
Contributor
Tab submitted by: Digs - digs@totalise.co.uk

Artist: Radiohead
Song: High & Dry

From the album - The Bends

Standard tuning.

Chords: F#m11   2X4200    
        Aadd9   577600  
        E       022100   
        A/E     04X200       
        Esus4   022200   
         
Intro

e --0---0---0---0-------0---0---0--0--0---0------------
b --0---0---0---0-------0---0---0--0--0---0------------
g --13--13--13--13--11--11--11------- 11--11-----------
d -----------------------------------------------------
a --11--11--11--11--9---9---9---------9---9------------
e -----------------------------------------------------


e --0---0---0---0-------0---0---0--0--0---0--0--0------
b --0---0---0---0-------0---0---0--0--0---0--0--0------
g --13--13--13--13--9---9---9---------9---9--9--9------
d -----------------------------------------------------
a --11--11--11--11--7---7---7---------7---7--7--7------
e ----------------------------------------------0------

Stay on the e for 8 beats and then repeat.

Verse 1

F#m11                         Aadd9                               E
Two jumps in a week I bet you think thats pretty clever don't you boy?

F#m11                      Aadd9                           E    A/E
Flying on your motorcycle, watching the ground beneath you drop.

F#m11                                Aadd9                       E
You'd kill yourself for recognition, kill yourself to never ever stop

F#m11                            Aadd9                          E    Esus4
You broke another mirror, you're turning into something you are not

Chorus

E                F#m11
  Don't leave me high 

A                 E
   Don't leave me dry

               F#m11
Don't leave me high

A              E
Don't leave me dry


That is the basis of the song, you should be 
able to work out the rest from here!!

Digs  (digs@totalise.co.uk)  

comments
print report bad tab
7 comments total. Showing first comments.
-2 reply
Gr33nDay44 wrote on October 24 2002, 12:00 am

It's actually ->

E------------------------------
A--6-6-6-6--4-4-4-4-4-4----6-6-6-6
D--6-6-6-6--4-4-4-4-4-4----6-6-6-6
G--4-4-4-4--2-2-2-2-2-2----4-4-4-4
B--0-0-0-0--0-0-0-0-0-0----0-0-0-0-----
E--0-0-0-0--0-0-0-0-0-0----0-0-0-0-----
^ ^ ^

-2 reply
Gr33nDay44 wrote on October 24 2002, 12:00 am

gues who f****d that correction up...
i'l try again ...n e way... its...

E------------------------------
A--6-6-6-6--4-4-4-4-4-4----6-6-6-6
D--6-6-6-6--4-4-4-4-4-4----6-6-6-6
G--4-4-4-4--2-2-2-2-2-2----4-4-4-4
B--0-0-0-0--0-0-0-0-0-0----0-0-0-0-----
E--0-0-0-0--0-0-0-0-0-0----0-0-0-0-----
^ ^ ^

-2 reply
Gr33nDay44 wrote on October 24 2002, 12:00 am

this is gettin annoyin ...

i'll try once again ... :) so the intro is...

Gsharp Fsharp E
E------------------------------------0
A--6-6-6-6--4-4-4-4-4-4----6-6-6-6---2
D--6-6-6-6--4-4-4-4-4-4----6-6-6-6---2
G--4-4-4-4--2-2-2-2-2-2----4-4-4-4---1
B--0-0-0-0--0-0-0-0-0-0----0-0-0-0---0
E--0-0-0-0--0-0-0-0-0-0----0-0-0-0---0
(x6)
these are just variations of the bar chords, except for the e chord.

finally i get it on the page !

I want to post or [tab]
guest
You may want to rate the tab now too:
select rating
Please do not post tabs as comments. Select "correction" instead!