Oops, an error
Loading. Please wait.

High And Dry Tab

version 3
version 3

Whole song

Video

463,619 views 420 this week
22 commentsread comments
1 2 3 4 5
excellent!
x 101
add to favorites
launch autoscroll
font size
0
reset
how to read this tab
guitar tuner
Tab Pro tools
  • play this tab
  • loop segment
  • change instrument
  • show fretboard
  • metronome
×
Best way to learn
"High And Dry"
Autoscroll
slow
fast
+/-
esc
set tempo
stop
                             \"High and Dry\"

                           Words and Music by:
Colin Greenwood, Jonathan Greenwood, Edward O\'Brien, Philip Selway & Thomas Yorke

Legend:

(5)- Ghost Note: A note in parenthesis that is barely heard in a recording
     or represents a note that is supposed to ring for longer than one measure.
PM - Palm mute
NH - Natural Harmonic
B  - Bend (I\'ve placed how much to bend over the measure; for example a
     .25 is a quarter step bend, a .5 is a half step bend, a .75 is a
      three fourths step bend, a 1 would be a whole step bend, 2.5 would
      be a two and a half step bend, etc.
Pb - Pre-Bend: The note is bent to a pre-determined pitch before it is
      picked.

Pbr- Pre-Bend Release: The note is bent to a predetermined pitch before it
is picked and is released to its original pitch.

Brh- Bend Release Hammer-on: Bend note to a pitch then release it to its
      Original pitch then either hammer-on or pull-off to a higher or
      Lower fret.

/  - Slide: If I have to explain this one you shouldn\'t be playing this
        song.

H  - Hammer-on

Br - Bend-Release: Bend note to a pitch then release it to its original
      Pitch.

~~ - Vibrato: Vibrating a string either by moving up and down with your
      fingers or by using a whammy bar.

^  - Roll

P.S. - Pitch Shifter: Use a pitch shifter when this is notated.

T.P. - Tremolo Pick: Tremolo pick (play notes really fast) when this is notated.

<    - Fade in: Note is faded in with volume knob, volume pedal, or with an E-bow.

>    - Fade out: Note is faded out with volume knob, volume pedal, or with an E-bow.

Guitar 1: Acoustic (Thom/ Doubled by gtr.4 throughout the song)
Guitar 2: Elec. (Johnny)
Guitar 3: Elec. (Ed; use ebow where noted)
Guitar 4: Acoustic Overdub
Guitar 5: Elec. Overdub (Ed)


   Gtr. 1 (Acoustic)
  (Drums)
E||------------------|---------------4--4--4--|
B||------------------|---------------0--0--0--|
G||------------------|---------------6--6--6--|
D||------------------|---------------6--6--6--|
A||------------------|------------------------|
E||------------------|------------------------|


  Gtr. 1
|--4----2---2---2-2---2----4--4--4--|--4---0--0--0-0---0---0-0-0-|
|--0----0---0---0-0---0----0--0--0--|--0---0--0--0-0---0---0-0-0-|
|--6/4--4---4---------4----6--6--6--|--6/2-2--2--------2---2-2-2-|
|--6/4--4---4---------4----6--6--6--|--6/2-2--2------------------|
|-----------------------------------|----------------------------|
|-----------------------------------|----------------------------|

[ Gtr. 1
[|-----0--0--0-0---0---0-0-0-|-----0--0--0-0-0--0---4--4--4--|
[|-----0--0--0-0---0---0-0-0-|-----0--0--0-0-0--0---0--0--0--|
[|--------1--1-1---1---1-1-1-|--------1--1-1-1--1---6--6--6--|
[|--------2--2-2---2---2-2-2-|--------2--2-2-2--2---6--6--6--|
[|--------2--2-2---2---2-2-2-|--------2--2-2-2--2------------|
[|--0------------------------|--0----------------------------|
[
[ Gtr. 2 (Johnny/Clean elec.)        (Fade in w/ volume pedal)
[                                                    <
[|---------------------------|-----------------------7-7-7-7-|
[|---------------------------|-------------------------------|
[|---------------------------|-------------------------------|
[|---------------------------|-------------------------------|
[|---------------------------|-------------------------------|
[|---------------------------|-------------------------------|


[ Gtr. 1
[|--4-----2---2---2--2--2---2----4--4--4--|--4----0--0--0-0----0---0-0-0-|
[|--0-----0---0---0--0--0---0----0--0--0--|--0----0--0--0-0----0---0-0-0-|
[|--6/4---4---4---4--4--4---4----6--6--6--|--6/2--2--2------2--2---2-2-2-|
[|--6/4---4---4---4--4--4---4----6--6--6--|--6/2--2--2------2--2---2-2-2-|
[|----------------------------------------|------------------------------|
[|----------------------------------------|------------------------------|
[
[ Gtr. 2 (tremolo pick really fast)
[|--7-7-7-7-7-7-7-7-7-7-7-7-7-7-7-7-7-7-7/|5-5-5-5-5-5-5-5-5-5-5-5-5-5-5/|
[|----------------------------------------|------------------------------|
[|----------------------------------------|------------------------------|
[|----------------------------------------|------------------------------|
[|----------------------------------------|------------------------------|
[|----------------------------------------|------------------------------|


[ Gtr.1
[|--0--0--0--0-0-0--0---0-0-0-|--0--0--0--0-0-0--0---0-0-0-|
[|--0--0--0--0-0-0--0---0-0-0-|--0--0--0--0-0-0--0---0-0-0-|
[|--1--1--1--1-1-1--1---1-1-1-|--1-----1--1-1-1--1---1-1-1-|
[|--2--2--2--2-2-2--2---2-2-2-|--2-----2--2-2-2--2---2-2-2-|
[|--2--2--2--2-2-2--2---2-2-2-|--2-----2--2-2-2--2---2-2-2-|
[|----------------------------|--0-------------------------|
[
[ Gtr. 2           (fade out)
[                           >
[|4-4-4-4-4-4-4-4-4-4-4-4-4-4-|----------------------------|
[|----------------------------|----------------------------|
[|----------------------------|----------------------------|
[|----------------------------|----------------------------|
[|----------------------------|----------------------------|
[|----------------------------|----------------------------|

1st Verse (00:28):

[ Two jumps in a week I bet you think that\'s pretty clever
[ Gtr. 1
[   *
[|--0----0---0-0--0---0-0--|--0----0---0-0--0---0-0-0-|
[|--0----0---0-0--0---0-0--|--0----0---0-0--0---0-0-0-|
[|--2----2---2-2--2---2-2--|--2----2---2-2--2---2-2-2-|
[|--4----4---4-4--4---4-4--|--2----2---2-2--2---2-2-2-|
[|--x----x---x-x--x---x-x--|--0----0---0-0--0---0-0-0-|
[|--2----2---2-2--2---2-2--|--------------------------|
[
[|------------------------------------------------|
[| *Note: The 6th string is fretted with the Thumb|
[|------------------------------------------------|

  don\'t you boy?
 Gtr. 1
|--0----0---0-0-0-0---0-0-0-|--0--0--0---0-0-0-0---0-0-0-|
|--0----0---0-0-0-0---0-0-0-|--0--0--0---0-0-0-0---0-0-0-|
|--1----1---1-1-1-1---1-1-1-|--1--1--1---1-1-1-1---1-1-1-|
|--2----2---2-2-2-2---2-2-2-|--2--2--2---2-2-2-2---2-2-2-|
|--2----2---2-2-2-2---2-2-2-|--2--2--2---2-2-2-2---2-2-2-|
|--0----0---0-0-0-0---0-0-0-|--0--0--0---0-0-0-0---0-0-0-|

 Flyin\' on your motorcycle watching all the ground beneath
 Gtr. 1
|--0----0---0-0--0---0-0--|--0----0---0-0--0---0-0-0-|
|--0----0---0-0--0---0-0--|--0----0---0-0--0---0-0-0-|
|--2----2---2-2--2---2-2--|--2----2---2-2--2---2-2-2-|
|--4----4---4-4--4---4-4--|--2----2---2-2--2---2-2-2-|
|--x----x---x-x--x---x-x--|--0----0---0-0--0---0-0-0-|
|--2----2---2-2--2---2-2--|--------------------------|


 you drop
 Gtr. 1
|--0----0---0-0-0-0---0-0-0-|--0--0--0--0-0-0-0-0-0-0-0-0-0-|
|--0----0---0-0-0-0---0-0-0-|--0--0--0--0-0-0-0-0-0-0-0-0-0-|
|--1----1---1-2-2-2---2-2-2-|--1--1--1--1-1-2-2-2-2-1-1-1-1-|
|--2----2---2-2-2-2---2-2-2-|--2--2--2--2-2-2-2-2-2-2-2-2-2-|
|--2----2---2-2-2-2---2-2-2-|--2--2--2--2-2-2-2-2-2-2-2-2-2-|
|--0----0---0-0-0-0---0-0-0-|--0--0--0--0-0-0-0-0-0-0-0-0-0-|


You\'d kill yourself for recognition kill your self to never
[ Gtr. 1
[|--0----0---0-0--0---0-0--|--0----0---0-0--0---0-0-0-|
[|--0----0---0-0--0---0-0--|--0----0---0-0--0---0-0-0-|
[|--2----2---2-2--2---2-2--|--2----2---2-2--2---2-2-2-|
[|--4----4---4-4--4---4-4--|--2----2---2-2--2---2-2-2-|
[|--x----x---x-x--x---x-x--|--0----0---0-0--0---0-0-0-|
[|--2----2---2-2--2---2-2--|--------------------------|
[
[ Gtr. 4 (Acoustic overdub)
[   ^                         ^
[|--0----------------------|--0-----------------------|
[|--0----------------------|--0-----------------------|
[|--2----------------------|--6-----------------------|
[|--4----------------------|--7-----------------------|
[|--x----------------------|--7-----------------------|
[|--2----------------------|--5-----------------------|
[
[ Gtr. 3 (Clean elec. w/Ebow)
[   <
[|-------------------------|--------------------------|
[|--9----------------------|--------------------------|
[|-------------------------|--------------------------|
[|-------------------------|--------------------------|
[|-------------------------|--------------------------|
[|-------------------------|--------------------------|


  ever stop
[ Gtr. 1
[|--0----0---0-0-0-0---0-0-0-|--0--0--0---0-0-0-0---0-0-0-|
[|--0----0---0-0-0-0---0-0-0-|--0--0--0---0-0-0-0---0-0-0-|
[|--1----1---1-2-2-2---2-2-2-|--1--1--1---1-1-1-1---1-1-1-|
[|--2----2---2-2-2-2---2-2-2-|--2--2--2---2-2-2-2---2-2-2-|
[|--2----2---2-2-2-2---2-2-2-|--2--2--2---2-2-2-2---2-2-2-|
[|--0----0---0-0-0-0---0-0-0-|--0--0--0---0-0-0-0---0-0-0-|
[
[ Gtr. 4
[   ^
[|--0------------------------|----------------------------|
[|--0------------------------|----------------------------|
[|--1------------------------|----------------------------|
[|--2------------------------|----------------------------|
[|--2------------------------|----------------------------|
[|--0------------------------|----------------------------|
[
[ Gtr. 3
[   <
[|---------------------------|----------------------------|
[|--7------------------------|----------------------------|
[|---------------------------|----------------------------|
[|---------------------------|----------------------------|
[|---------------------------|----------------------------|
[|---------------------------|----------------------------|


 You broke another mirror You\'re turning into something

[|--0----0---0-0--0---0-0--|--0----0---0-0--0---0-0-0-|
[|--0----0---0-0--0---0-0--|--0----0---0-0--0---0-0-0-|
[|--2----2---2-2--2---2-2--|--2----2---2-2--2---2-2-2-|
[|--4----4---4-4--4---4-4--|--2----2---2-2--2---2-2-2-|
[|--x----x---x-x--x---x-x--|--0----0---0-0--0---0-0-0-|
[|--2----2---2-2--2---2-2--|--------------------------|
[
[ Gtr. 4
[   ^                         ^
[|--0----------------------|--0-----------------------|
[|--0----------------------|--0-----------------------|
[|--2----------------------|--6-----------------------|
[|--4----------------------|--7-----------------------|
[|--x----------------------|--7-----------------------|
[|--2----------------------|--5-----------------------|
[
[ Gtr. 3
[   <                         <
[|-------------------------|--------------------------|
[|--9----------------------|--10----------------------|
[|-------------------------|--------------------------|
[|-------------------------|--------------------------|
[|-------------------------|--------------------------|
[|-------------------------|--------------------------|


 you are not                              Don\'t leave me  hi-
[ Gtr. 1
[|--0----0---0-0-0-0--0-0-0-0-|--0--0--0---0-0-0-0-0-0-0-0-0-|
[|--0----0---0-0-0-0--0-0-0-0-|--0--0--0---0-0-0-0-0-0-0-0-0-|
[|--1----1---1-2-2-2--2-2-2-2-|--1--1--1---1-1-1-1-1-1-1-1-1-|
[|--2----2---2-2-2-2--2-2-2-2-|--2--2--2---2-2-2-2-2-2-2-2-2-|
[|--2----2---2-2-2-2--2-2-2-2-|--2--2--2---2-2-2-2-2-2-2-2-2-|
[|--0----0---0-0-0-0--0-0-0-0-|--0--0--0---0-0-0-0-0-0-0-0-0-|
[
[ Gtr. 4
[   ^
[|--0-------------------------|------------------------------|
[|--0-------------------------|------------------------------|
[|--1-------------------------|------------------------------|
[|--2-------------------------|------------------------------|
[|--2-------------------------|------------------------------|
[|--0-------------------------|------------------------------|
[
[ Gtr. 3
[   <
[|----------------------------|------------------------------|
[|--12------------------------|------------------------------|
[|----------------------------|------------------------------|
[|----------------------------|------------------------------|
[|----------------------------|------------------------------|
[|----------------------------|------------------------------|


1st Chorus (1:12):

   -iiiiiggggggggh                        don\'t leave me
[ Gtr. 1
[|--0--0--0-0-0-0-0-0--0-0-0-|--0--0-0--0-0-0-0-0--0-0-0-|
[|--0--0--0-0-0-0-0-0--0-0-0-|--0--0-0--0-0-0-0-0--0-0-0-|
[|--2--2--2-2-2-2-2-2--2-2-2-|--6--6-6--6-6-6-6-6--6-6-6-|
[|--4--4--4-4-4-4-4-4--4-4-4-|--7--7-7--7-7-7-7-7--7-7-7-|
[|--x--x--x-x-x-x-x-x--x-x-x-|--7--7-7--7-7-7-7-7--7-7-7-|
[|--2--2--2-2-2-2-2-2--2-2-2-|--5--5-5--5-5-5-5-5--5-5-5-|
[
[ Grs. 2 and 3 (w/Overdrive)
[|---------------------------|---------------------------|
[|---------------------------|---------------------------|
[|---------------------------|---------------------------|
[|---------------------------|---------------------------|
[|--4--4--4--4--4--4--4--4-4-|--7--7--7--7--7--7--7--7-7-|
[|--2--2--2--2--2--2--2--2-2-|--5--5--5--5--5--5--5--5-5-|


   drrrrryyyyyyyyy                     don\'t leave me hi-
[ Gtr. 1
[|--0-0-0--0-0-0-0-0--0-0-0-|--0-0-0--0-0-0-0-0-0--0-0-0-|
[|--0-0-0--0-0-0-0-0--0-0-0-|--0-0-0--0-0-0-0-0-0--0-0-0-|
[|--1-1-1--1-1-1-1-1--1-1-1-|--1-1-1--1-1-1-1-1-1--1-1-1-|
[|--2-2-2--2-2-2-2-2--2-2-2-|--2-2-2--2-2-2-2-2-2--2-2-2-|
[|--2-2-2--2-2-2-2-2--2-2-2-|--2-2-2--2-2-2-2-2-2--2-2-2-|
[|--0-0-0--0-0-0-0-0--0-0-0-|--0-0-0--0-0-0-0-0-0--0-0-0-|
[
[ Gtrs. 2 and 3
[|--------------------------|----------------------------|
[|--------------------------|----------------------------|
[|--------------------------|----------------------------|
[|--------------------------|-----------------------2-2--|
[|--2--2--2--2--2--2--2--2--|--2--2--2--2--2--2--2--0-0--|
[|--0--0--0--0--0--0--0--0--|--0--0--0--0--0--0--0-------|

  -iiiggggghhhh                         don\'t leave me
[ Gtr. 1
[|--0--0--0--0-0-0-0-0---0---0-0-|--0------------------|
[|--0--0--0--0-0-0-0-0---0---0-0-|--0------------------|
[|--2--2--2--2-2-2-2-2---2---2-2-|--6------------------|
[|--4--4--4--4-4-4-4-4---4---4-4-|--7------------------|
[|--x--x--x--x-x-x-x-x---x---x-x-|--7------------------|
[|--2--2--2--2-2-2-2-2---2---2-2-|--5------------------|
[
[  Gtrs. 2 and 3
[|-------------------------------|---------------------|
[|-------------------------------|---------------------|
[|-------------------------------|---------------------|
[|-------------------------------|---------------------|
[|--4--4--4--4-4-4-4-4-4-4-4-4-4-|--7------------------|
[|--2--2--2--2-2-2-2-2-2-2-2-2-2-|--5------------------|


   dry
[ Gtr. 1
[|--0--0--0--0-0---0---0-0-0-|--0-0-0--0--0-0-0-0-0-0-0-4--4--4--|
[|--0--0--0--0-0---0---0-0-0-|--0-0-0--0--0-0-0-0-0-0-0-0--0--0--|
[|--1--1--1--1-1---1---1-1-1-|--1-1-1--1--1-1-1-1-1-1-1-6--6--6--|
[|--2--2--2--2-2---2---2-2-2-|--2-2-2--2--2-2-2-2-2-2-2-6--6--6--|
[|--2--2--2--2-2---2---2-2-2-|--2-2-2--2--2-2-2-2-2-2-2----------|
[|--0--0--0--0-0---0---0-0-0-|--0-0-0--0--0-0-0-0-0-0-0----------|
[
[ Gtrs. 2 and 3
[|--0------------------------|-----------------------------------|
[|--0------------------------|-----------------------------------|
[|--1------------------------|-----------------------------------|
[|--2------------------------|-----------------------------------|
[|--2------------------------|-----------------------------------|
[|--0------------------------|-----------------------------------|

 Gtr. 1
|--4-----2---2---2--2--2---2----4--4--4--|--4----0--0--0-0----0---0-0-0-|
|--0-----0---0---0--0--0---0----0--0--0--|--0----0--0--0-0----0---0-0-0-|
|--6/4---4---4---4--4--4---4----6--6--6--|--6/2--2--2------2--2---2-2-2-|
|--6/4---4---4---4--4--4---4----6--6--6--|--6/2--2--2------2--2---2-2-2-|
|----------------------------------------|------------------------------|
|----------------------------------------|------------------------------|


 Gtr. 1
|--0--0--0--0-0-0--0---0-0-0-|-----0--0--0-0-0--0---0-0-0-|
|--0--0--0--0-0-0--0---0-0-0-|-----0--0--0-0-0--0---0-0-0-|
|--1--1--1--1-1-1--1---1-1-1-|--------1--1-1-1--1---1-1-1-|
|--2--2--2--2-2-2--2---2-2-2-|--------2--2-2-2--2---2-2-2-|
|--2--2--2--2-2-2--2---2-2-2-|--2-----2--2-2-2--2---2-2-2-|
|----------------------------|--0-------------------------|


2nd Verse (1:44):

 drying up in conversation you will be the one who can-
 Gtr. 1
|--0----0---0-0--0---0-0--|--0----0---0-0--0---0-0-0-|
|--0----0---0-0--0---0-0--|--0----0---0-0--0---0-0-0-|
|--2----2---2-2--2---2-2--|--2----2---2-2--2---2-2-2-|
|--4----4---4-4--4---4-4--|--2----2---2-2--2---2-2-2-|
|--x----x---x-x--x---x-x--|--0----0---0-0--0---0-0-0-|
|--2----2---2-2--2---2-2--|--------------------------|


  -not talk
[ Gtr. 1
[|--0----0---0-0-0-0---0-0-0-|--0--0--0---0-0-0-0---0-0-0-|
[|--0----0---0-0-0-0---0-0-0-|--0--0--0---0-0-0-0---0-0-0-|
[|--1----1---1-1-1-1---1-1-1-|--1--1--1---1-1-1-1---1-1-1-|
[|--2----2---2-2-2-2---2-2-2-|--2--2--2---2-2-2-2---2-2-2-|
[|--2----2---2-2-2-2---2-2-2-|--2--2--2---2-2-2-2---2-2-2-|
[|--0----0---0-0-0-0---0-0-0-|--0--0--0---0-0-0-0---0-0-0-|
[
[ Gtr. 3 (w/ E-bow?)*
[ (fade the \"22\" in)                    *   *
[|----------------22---------|19\\\\\\\\17-(17)(17)\\16--12\\9----|
[|---------------------------|------------------------------------|
[|---------------------------|------------------------------------|
[|---------------------------|------------------------------------|
[|---------------------------|------------------------------------|
[|---------------------------|------------------------------------|

|-----------------------------------------------------------------------|
|*note: The two \"17\"s in parenthesis are either sounded by moving the   |
| e-bow to and from the string or by articulating the notes with a pick |
| using a slide to move from note to note. This part is mixed in pretty |
| low on the recording so it\'s difficult to tell which was used on this |
| fill.                                                                 |
|-----------------------------------------------------------------------|

 All your insides fall to pieces you just sit there wishing you could
[ Gtr. 1
[|--0----0---0-0--0---0-0--|--0----0---0-0--0---0-0-0-|
[|--0----0---0-0--0---0-0--|--0----0---0-0--0---0-0-0-|
[|--2----2---2-2--2---2-2--|--2----2---2-2--2---2-2-2-|
[|--4----4---4-4--4---4-4--|--2----2---2-2--2---2-2-2-|
[|--x----x---x-x--x---x-x--|--0----0---0-0--0---0-0-0-|
[|--2----2---2-2--2---2-2--|--------------------------|
[
[ Gtr.2 (w/clean tone: Left Channel)
[|-------------------------|--7h4---------------------|
[|-------------------------|-------5------------------|
[|-------------------------|-----------6--------6-6---|
[|-------------------------|--------------------------|
[|-------------------------|--------------------------|
[|-------------------------|--------------------------|
[
[ Gtr. 3 (with tone rolled down: Right Channel)
[|-------------------------|--------------------------|
[|-------------------------|--------------------------|
[|--9---------8------------|--6---------4-------------|
[|-------------------------|--------------------------|
[|-------------------------|--------------------------|
[|-------------------------|--------------------------|


 still make love
[ Gtr. 1
[|--0----0---0-0-0-0---0-0-0-|--0--0--0--0-0-0-0-0-0-0-0-0-0-|
[|--0----0---0-0-0-0---0-0-0-|--0--0--0--0-0-0-0-0-0-0-0-0-0-|
[|--1----1---1-2-2-2---2-2-2-|--1--1--1--1-1-2-2-2-2-1-1-1-1-|
[|--2----2---2-2-2-2---2-2-2-|--2--2--2--2-2-2-2-2-2-2-2-2-2-|
[|--2----2---2-2-2-2---2-2-2-|--2--2--2--2-2-2-2-2-2-2-2-2-2-|
[|--0----0---0-0-0-0---0-0-0-|--0--0--0--0-0-0-0-0-0-0-0-0-0-|
[
[ Gtr. 2 (w/ clean tone)
[|-----------0---------------|-------------------------------|
[|-----------0---------------|-------------------------------|
[|--6------------------------|-------------------------------|
[|---------------------------|-------------------------------|
[|---------------------------|-------------------------------|
[|---------------------------|-------------------------------|
[
[ Gtr. 3
[|---------------------------|-------------------------------|
[|---------------------------|-------------------------------|
[|--1------------------------|--------1------2///4------4----|
[|---------------------------|-------------------------------|
[|---------------------------|-------------------------------|
[|---------------------------|-------------------------------|

 They\'re the ones who\'ll hate you when you think you\'ve got the world
[ Gtr. 1
[|--0----0---0-0--0---0-0--|--0----0---0-0--0---0-0-0-|
[|--0----0---0-0--0---0-0--|--0----0---0-0--0---0-0-0-|
[|--2----2---2-2--2---2-2--|--2----2---2-2--2---2-2-2-|
[|--4----4---4-4--4---4-4--|--2----2---2-2--2---2-2-2-|
[|--x----x---x-x--x---x-x--|--0----0---0-0--0---0-0-0-|
[|--2----2---2-2--2---2-2--|--------------------------|
[
[ Gtr. 2
[|------4/-----2-----------|--------4--------0--------|
[|-------------------------|--------------------------|
[|-------------------1/----|--------------------------|
[|-------------------------|--------------------------|
[|-------------------------|--------------------------|
[|-------------------------|--------------------------|
[
[ Gtr. 3
[|-------------------------|--------------------------|
[|-------------------------|--------------------------|
[|--4////////2-------1/----|--4----------2------------|
[|-------------------------|--------------------------|
[|-------------------------|--------------------------|
[|-------------------------|--------------------------|

 all sussed out
[ Gtr. 1
[|--0----0---0-0-0-0---0-0-0-|--0--0--0---0-0-0-0---0-0-0-|
[|--0----0---0-0-0-0---0-0-0-|--0--0--0---0-0-0-0---0-0-0-|
[|--1----1---1-2-2-2---2-2-2-|--1--1--1---1-1-1-1---1-1-1-|
[|--2----2---2-2-2-2---2-2-2-|--2--2--2---2-2-2-2---2-2-2-|
[|--2----2---2-2-2-2---2-2-2-|--2--2--2---2-2-2-2---2-2-2-|
[|--0----0---0-0-0-0---0-0-0-|--0--0--0---0-0-0-0---0-0-0-|
[
[ Gtr. 2
[|--0------------------------|----------------------------|
[|---------------------------|----------------------------|
[|---------------------------|----------------------------|
[|---------------------------|----------------------------|
[|---------------------------|----------------------------|
[|---------------------------|----------------------------|
[
[ Gtr. 3
[|---------------------------|----------------------------|
[|---------------------------|----------------------------|
[|--1------------------------|----------------------------|
[|---------------------------|----------------------------|
[|---------------------------|----------------------------|
[|---------------------------|----------------------------|

  They\'re the ones who\'ll spit at you, you will be the one
[ Gtr. 1
[|--0----0---0-0--0---0-0--|--0----0---0-0--0---0-0-0-|
[|--0----0---0-0--0---0-0--|--0----0---0-0--0---0-0-0-|
[|--2----2---2-2--2---2-2--|--2----2---2-2--2---2-2-2-|
[|--4----4---4-4--4---4-4--|--2----2---2-2--2---2-2-2-|
[|--x----x---x-x--x---x-x--|--0----0---0-0--0---0-0-0-|
[|--2----2---2-2--2---2-2--|--------------------------|
[
[ Gtr. 4
[   ^                         ^
[|--0----------------------|--0-----------------------|
[|--0----------------------|--0-----------------------|
[|--2----------------------|--6-----------------------|
[|--4----------------------|--7-----------------------|
[|--x----------------------|--7-----------------------|
[|--2----------------------|--5-----------------------|
[
[ Gtr. 3
[|-------------------------|--------------------------|
[|-------------------------|--------------------------|
[|-------------------------|---------------------9----|
[|-------------------------|--------------------------|
[|-------------------------|--------------------------|
[|-------------------------|--------------------------|

  screaming out                              Don\'t leave me Hi-
[ Gtr. 1
[|--0----0---0-0-0-0--0-0-0-0-|--0--0--0---0-0-0-0-0-0-0-0-0-|
[|--0----0---0-0-0-0--0-0-0-0-|--0--0--0---0-0-0-0-0-0-0-0-0-|
[|--1----1---1-2-2-2--2-2-2-2-|--1--1--1---1-1-1-1-1-1-1-1-1-|
[|--2----2---2-2-2-2--2-2-2-2-|--2--2--2---2-2-2-2-2-2-2-2-2-|
[|--2----2---2-2-2-2--2-2-2-2-|--2--2--2---2-2-2-2-2-2-2-2-2-|
[|--0----0---0-0-0-0--0-0-0-0-|--0--0--0---0-0-0-0-0-0-0-0-0-|
[
[ Gtr. 3
[    1         1       1                   1        1
[|----------------------------|------------------------------|
[|----------------------------|------------------------------|
[|--11b------11pb-----11b-----|-----------11b----11pbr--9----|
[|----------------------------|------------------------------|
[|----------------------------|------------------------------|
[|----------------------------|------------------------------|


2nd Chorus (2:28):

   -iiiggggghhhh                           don\'t leave me
[ Gtr. 1
[|--0--0--0-0-0-0-0-0--0-0-0-|--0--0-0--0-0-0-0-0--0-0-0-|
[|--0--0--0-0-0-0-0-0--0-0-0-|--0--0-0--0-0-0-0-0--0-0-0-|
[|--2--2--2-2-2-2-2-2--2-2-2-|--6--6-6--6-6-6-6-6--6-6-6-|
[|--4--4--4-4-4-4-4-4--4-4-4-|--7--7-7--7-7-7-7-7--7-7-7-|
[|--x--x--x-x-x-x-x-x--x-x-x-|--7--7-7--7-7-7-7-7--7-7-7-|
[|--2--2--2-2-2-2-2-2--2-2-2-|--5--5-5--5-5-5-5-5--5-5-5-|
[
[ Gtrs. 2 and 3 (w/overdrive)
[|---------------------------|---------------------------|
[|---------------------------|---------------------------|
[|---------------------------|---------------------------|
[|---------------------------|---------------------------|
[|--4--4--4--4--4--4--4--4-4-|--7--7--7--7--7--7--7--7-7-|
[|--2--2--2--2--2--2--2--2-2-|--5--5--5--5--5--5--5--5-5-|

   drrrrryyyyyyyyy                     don\'t leave me hi-
[ Gtr. 1
[|--0-0-0--0-0-0-0-0--0-0-0-|--0-0-0--0-0-0-0-0-0--0-0-0-|
[|--0-0-0--0-0-0-0-0--0-0-0-|--0-0-0--0-0-0-0-0-0--0-0-0-|
[|--1-1-1--1-1-1-1-1--1-1-1-|--1-1-1--1-1-1-1-1-1--1-1-1-|
[|--2-2-2--2-2-2-2-2--2-2-2-|--2-2-2--2-2-2-2-2-2--2-2-2-|
[|--2-2-2--2-2-2-2-2--2-2-2-|--2-2-2--2-2-2-2-2-2--2-2-2-|
[|--0-0-0--0-0-0-0-0--0-0-0-|--0-0-0--0-0-0-0-0-0--0-0-0-|
[
[ Gtrs. 2 and 3
[|--------------------------|----------------------------|
[|--------------------------|----------------------------|
[|--------------------------|----------------------------|
[|--------------------------|-----------------------2-2--|
[|--2--2--2--2--2--2--2--2--|--2--2--2--2--2--2--2--0-0--|
[|--0--0--0--0--0--0--0--0--|--0--0--0--0--0--0--0-------|

  -igh                                          don\'t leave me
[ Gtr. 1
[|--0--0--0--0-0-0-0-0---0--0--0-|--0--0--0--0-0-0-0-0--0-0-0-|
[|--0--0--0--0-0-0-0-0---0--0--0-|--0--0--0--0-0-0-0-0--0-0-0-|
[|--2--2--2--2-2-2-2-2---2--2--2-|--6--6--6--6-6-6-6-6--6-6-6-|
[|--4--4--4--4-4-4-4-4---4--4--4-|--7--7--7--7-7-7-7-7--7-7-7-|
[|--x--x--x--x-x-x-x-x---x--x--x-|--7--7--7--7-7-7-7-7--7-7-7-|
[|--2--2--2--2-2-2-2-2---2--2--2-|--5--5--5--5-5-5-5-5--5-5-5-|
[
[ Gtrs. 2 and 3
[|-------------------------------|----------------------------|
[|-------------------------------|----------------------------|
[|-------------------------------|----------------------------|
[|-------------------------------|----------------------------|
[|--4--4--4--4-4-4-4-4-4-4-4-4-4-|--7--7--7--7--7--7--7--7--7-|
[|--2--2--2--2-2-2-2-2-2-2-2-2-2-|--5--5--5--5--5--5--5--5--5-|


    drrrryyyyyyyy
[ Gtr. 1
[|--0-0-0--0-0-0-0-0--0-0-0-|--0-0-0--0--0-0-0-0-0--0-0-0-|
[|--0-0-0--0-0-0-0-0--0-0-0-|--0-0-0--0--0-0-0-0-0--0-0-0-|
[|--1-1-1--1-1-1-1-1--1-1-1-|--1-1-1--1--1-1-1-1-1--1-1-1-|
[|--2-2-2--2-2-2-2-2--2-2-2-|--2-2-2--2--2-2-2-2-2--2-2-2-|
[|--2-2-2--2-2-2-2-2--2-2-2-|--2-2-2--2--2-2-2-2-2--2-2-2-|
[|--0-0-0--0-0-0-0-0--0-0-0-|--0-0-0--0--0-0-0-0-0--0-0-0-|
[
[ Gtrs. 2 and 3
[|--------------------------|-----------------------------|
[|--------------------------|-----------------------------|
[|--------------------------|-----------------------------|
[|--------------------------|-----------------------------|
[|--2--2--2--2--2--2--2--2--|--2--2---2---2--2--2---2--2--|
[|--0--0--0--0--0--0--0--0--|--0--0---0---0--0--0---0--0--|


Guitar Solo (2:50):

[ Gtr. 1
[|--0--0--0--0-0-0-0-0--0--0-0-|--0--0--0--0-0-0-0-0--0--0-0-|
[|--0--0--0--0-0-0-0-0--0--0-0-|--0--0--0--0-0-0-0-0--0--0-0-|
[|--2--2--2--2-2-2-2-2--2--2-2-|--6--6--6--6-6-6-6-6--6--6-6-|
[|--4--4--4--4-4-4-4-4--4--4-4-|--7--7--7--7-7-7-7-7--7--7-7-|
[|--x--x--x--x-x-x-x-x--x--x-x-|--7--7--7--7-7-7-7-7--7--7-7-|
[|--2--2--2--2-2-2-2-2--2--2-2-|--5--5--5--5-5-5-5-5--5--5-5-|
[
[ Gtr. 2                                      1
[|------0------------0---------|----0---------0---0----------|
[|--5-------4--5---------4--5--|--------4--5--5b------4--4---|
[|-----------------------------|-----------------------------|
[|-----------------------------|-----------------------------|
[|-----------------------------|-----------------------------|
[|-----------------------------|-----------------------------|
[
[ Gtr. 3
[|-----------------------------|-----------------------------|
[|-----------------------------|-----------------------------|
[|-----------------------------|-----------------------------|
[|--------4-------------4------|--------7-------------7------|
[|--4--4--4--4---4---4--4--4-4-|--7--7--7--7---7---7--7--7-7-|
[|--2--2--2--2---2---2--2--2-2-|--5--5--5--5---5---5--5--5-5-|

[ Gtr. 1
[|--0--0--0--0-0-0-0-0--0-0-0-|--0-0-0--0--0-0-0-0-0--0-0-0-|
[|--0--0--0--0-0-0-0-0--0-0-0-|--0-0-0--0--0-0-0-0-0--0-0-0-|
[|--1--1--1--1-1-1-1-1--1-1-1-|--1-1-1--1--1-1-1-1-1--1-1-1-|
[|--2--2--2--2-2-2-2-2--2-2-2-|--2-2-2--2--2-2-2-2-2--2-2-2-|
[|--2--2--2--2-2-2-2-2--2-2-2-|--2-2-2--2--2-2-2-2-2--2-2-2-|
[|--0--0--0--0-0-0-0-0--0-0-0-|--0-0-0--0--0-0-0-0-0--0-0-0-|
[
[ Gtr. 2
[|------0------------0--------|----0--------------0---------|
[|--5-------4---5-------2-----|--------0-------2-----4---4--|
[|-------------------------4--|------------4----------------|
[|----------------------------|-----------------------------|
[|----------------------------|-----------------------------|
[|----------------------------|-----------------------------|
[
[ Gtr. 3
[|----------------------------|-----------------------------|
[|----------------------------|-----------------------------|
[|----------------------------|-----------------------------|
[|----------------------------|-----------------------------|
[|--2--2--2--2--2---2---2--2--|--2--2---2---2--2--2---2--2--|
[|--0--0--0--0--0---0---0--0--|--0--0---0---0--0--0---0--0--|

[ Gtr. 1
[|--0--0--0--0-0-0-0-0--0--0-0-|--0--0--0--0-0-0-0-0--0--0-0-|
[|--0--0--0--0-0-0-0-0--0--0-0-|--0--0--0--0-0-0-0-0--0--0-0-|
[|--2--2--2--2-2-2-2-2--2--2-2-|--6--6--6--6-6-6-6-6--6--6-6-|
[|--4--4--4--4-4-4-4-4--4--4-4-|--7--7--7--7-7-7-7-7--7--7-7-|
[|--x--x--x--x-x-x-x-x--x--x-x-|--7--7--7--7-7-7-7-7--7--7-7-|
[|--2--2--2--2-2-2-2-2--2--2-2-|--5--5--5--5-5-5-5-5--5--5-5-|
[
[ Gtr. 2
[                                             1
[|------0------------0---------|----0---------0---0----------|
[|--5-------4--5---------4--5--|--------4--5--5b------4--4---|
[|-----------------------------|-----------------------------|
[|-----------------------------|-----------------------------|
[|-----------------------------|-----------------------------|
[|-----------------------------|-----------------------------|
[
[ Gtr. 3
[|-----------------------------|-----------------------------|
[|-----------------------------|-----------------------------|
[|-----------------------------|-----------------------------|
[|--------4-------------4------|--------7-------------7------|
[|--4--4--4--4---4---4--4--4-4-|--7--7--7--7---7---7--7--7-7-|
[|--2--2--2--2---2---2--2--2-2-|--5--5--5--5---5---5--5--5-5-|


                                                            Oh
[ Gtr. 1
[|--0--0--0--0-0-0-0-0--0--0-0-|--0-0-0--0--0-0-0-0-0-0-0-0-0-0-|
[|--0--0--0--0-0-0-0-0--0--0-0-|--0-0-0--0--0-0-0-0-0-0-0-0-0-0-|
[|--1--1--1--1-1-1-1-1--1--1-1-|--1-1-1--1--1-1-1-1-1-1-1-1-1-1-|
[|--2--2--2--2-2-2-2-2--2--2-2-|--2-2-2--2--2-2-2-2-2-2-2-2-2-2-|
[|--2--2--2--2-2-2-2-2--2--2-2-|--2-2-2--2--2-2-2-2-2-2-2-2-2-2-|
[|--0--0--0--0-0-0-0-0--0--0-0-|--0-0-0--0--0-0-0-0-0-0-0-0-0-0-|
[
[ Gtr. 2
[|----0---------0---0----------|------0-------------0-----------|
[|--------4--5--5b------4--4---|--5-------4---5---------2-------|
[|-----------------------------|----------------------------4---|
[|-----------------------------|--------------------------------|
[|-----------------------------|--------------------------------|
[|-----------------------------|--------------------------------|
[
[ Gtr. 3
[|-----------------------------|--------------------------------|
[|-----------------------------|--------------------------------|
[|-----------------------------|--------------------------------|
[|-----------------------------|--------------------------------|
[|--2--2--2--2---2---2---2--2--|--2---2---2---2---2---2---2--2--|
[|--0--0--0--0---0---0---0--0--|--0---0---0---0---0---0---0--0--|

Bridge (3:11):

 it\'s the best thing that you\'ve ever had the best thing that you\'ve ever ever had
[ Gtr. 1
[|--0-----------------0-0-0-|--0-----------------0-0-0-|--0------------------|
[|--0-----------------0-0-0-|--0-----------------0-0-0-|--0------------------|
[|--2-----------------2-2-2-|--6-----------------6-6-6-|--1------------------|
[|--4-----------------4-4-4-|--7-----------------7-7-7-|--2------------------|
[|--x-----------------x-x-x-|--7-----------------7-7-7-|--2------------------|
[|--2-----------------2-2-2-|--5-----------------5-5-5-|--0------------------|
[
[ Gtr. 5 (Ed overdub w/clean tone)                                 N.H---------|
[|--------------------------|--------------------------|-----------------12----|
[|--------------------------|--------------------------|-------------12--------|
[|--------------------------|--------------------------|-----------------------|
[|--------------------------|--------------------------|-----------------------|
[|--------------------------|--------------------------|-----------------------|
[|--------------------------|--------------------------|-----------------------|
[
[ Gtr. 3 (clean with Ebow)                                <
[|--------------------------|--------------------------|---------------------|
[|--------------------------|--------------------------|---------------------|
[|--------------------------|--------------------------|--9------------------|
[|--------------------------|--------------------------|---------------------|
[|--------------------------|--------------------------|---------------------|
[|--------------------------|--------------------------|---------------------|


 it\'s the best thing that you\'ve ever had, the best thing that you\'ve had has
[ Gtr. 1
[|--------------------0-|--0----------------0-0-0-|--0-------------0-0-0-|
[|--------------------0-|--0----------------0-0-0-|--0-------------0-0-0-|
[|--------------------2-|--2----------------2-2-2-|--6-------------6-6-6-|
[|--------------------4-|--4----------------4-4-4-|--7-------------7-7-7-|
[|--------------------x-|--x----------------x-x-x-|--7-------------7-7-7-|
[|--------------------2-|--2----------------2-2-2-|--5-------------5-5-5-|
[
[ Gtr. 3
[                          <                         <
[|----------------------|-------------------------|----------------------|
[|----------------------|-------------------------|----------------------|
[|----------------------|--9----------------------|--6-------------------|
[|----------------------|-------------------------|----------------------|
[|----------------------|-------------------------|----------------------|
[|----------------------|-------------------------|----------------------|


 gone away                             So don\'t leave me
[ Gtr. 1
[|--0----0--0--0--0--0--0--|--0--0--0--0--0--0--0-0-0-0-|
[|--0----0--0--0--0--0--0--|--0--0--0--0--0--0--0-0-0-0-|
[|--1----1--1--1--1--1--1--|--1--1--1--1--1--1--1-1-1-1-|
[|--2----2--2--2--2--2--2--|--2--2--2--2--2--2--2-2-2-2-|
[|--2----2--2--2--2--2--2--|--2--2--2--2--2--2--2-2-2-2-|
[|--0----0--0--0--0--0--0--|--0--0--0--0--0--0--0-0-0-0-|
[
[   <
[|-------------------------|----------------------------|
[|-------------------------|----------------------------|
[|--4----------------------|----------------------------|
[|-------------------------|----------------------------|
[|-------------------------|----------------------------|
[|-------------------------|----------------------------|

3rd Chorus (3:33):

   High                                       Don\'t leave me
[ Gtr. 1
[|--0--0--0--0-0-0-0-0--0--0-0-|--0--0--0--0-0-0-0-0--0--0-0-|
[|--0--0--0--0-0-0-0-0--0--0-0-|--0--0--0--0-0-0-0-0--0--0-0-|
[|--2--2--2--2-2-2-2-2--2--2-2-|--6--6--6--6-6-6-6-6--6--6-6-|
[|--4--4--4--4-4-4-4-4--4--4-4-|--7--7--7--7-7-7-7-7--7--7-7-|
[|--x--x--x--x-x-x-x-x--x--x-x-|--7--7--7--7-7-7-7-7--7--7-7-|
[|--2--2--2--2-2-2-2-2--2--2-2-|--5--5--5--5-5-5-5-5--5--5-5-|
[
[ Gtr. 2 (overdriven)                           1
[|------0------------0---------|----0-----------0--0---------|
[|--5-------4---5--------4--5--|--------4---5---5b-----5--4--|
[|-----------------------------|-----------------------------|
[|-----------------------------|-----------------------------|
[|-----------------------------|-----------------------------|
[|-----------------------------|-----------------------------|
[
[ Gtr. 3 (overdriven)
[|-----------------------------|-----------------------------|
[|-----------------------------|-----------------------------|
[|-----------------------------|-----------------------------|
[|--------4--4----------4--4-4/|--------7-------------7--7-7/|
[|--x--x--4--4---x--x---4--4-4/|--x--x--7--x---x---x--7--7-7/|
[|--2--2--2--2---2--2---2--2-2/|--5--5--5--5---5---5--5--5-5/|


    Dry                                         Don\'t leave me
[ Gtr. 1
[|--0--0--0--0-0-0-0-0--0--0-0-|--0-0-0--0--0-0-0-0-0--0--0-0-|
[|--0--0--0--0-0-0-0-0--0--0-0-|--0-0-0--0--0-0-0-0-0--0--0-0-|
[|--1--1--1--1-1-1-1-1--1--1-1-|--1-1-1--1--1-1-1-1-1--1--1-1-|
[|--2--2--2--2-2-2-2-2--2--2-2-|--2-2-2--2--2-2-2-2-2--2--2-2-|
[|--2--2--2--2-2-2-2-2--2--2-2-|--2-2-2--2--2-2-2-2-2--2--2-2-|
[|--0--0--0--0-0-0-0-0--0--0-0-|--0-0-0--0--0-0-0-0-0--0--0-0-|
[
[ Gtr. 2
[|-----0-----------------------|------------------------------|
[|--5-----4---5---5---2--2-----|------------------------------|
[|--------------------------4--|------2------1--1-------------|
[|-----------------------------|------------------------------|
[|-----------------------------|------------------------------|
[|-----------------------------|------------------------------|
[
[ Gtr. 3
[|-----------------------------|------------------------------|
[|-----------------------------|------------------------------|
[|-----------------------------|------------------------------|
[|--------2--------------2-----|--------2--------------2--2-2-|
[|--x--x--2--x---x---x---2--x--|--x--x--2--x---x---x---2--0-0-|
[|--0--0--0--0---0---0---0--0--|--0--0--0--0---0---0---0------|


  High                                         Don\'t leave me
[ Gtr. 1
[|--0--0--0--0-0-0-0-0--0--0-0-|--0--0--0--0-0-0-0-0--0--0-0-|
[|--0--0--0--0-0-0-0-0--0--0-0-|--0--0--0--0-0-0-0-0--0--0-0-|
[|--2--2--2--2-2-2-2-2--2--2-2-|--6--6--6--6-6-6-6-6--6--6-6-|
[|--4--4--4--4-4-4-4-4--4--4-4-|--7--7--7--7-7-7-7-7--7--7-7-|
[|--x--x--x--x-x-x-x-x--x--x-x-|--7--7--7--7-7-7-7-7--7--7-7-|
[|--2--2--2--2-2-2-2-2--2--2-2-|--5--5--5--5-5-5-5-5--5--5-5-|
[
[ Gtr. 2
[|-----0-------------0---------|-----0-------------0---------|
[|--5-----4--5---5-------4--5--|--5-----4--5---5-------4--5--|
[|-----------------------------|-----------------------------|
[|-----------------------------|-----------------------------|
[|-----------------------------|-----------------------------|
[|-----------------------------|-----------------------------|
[
[ Gtr. 3
[|-----------------------------|-----------------------------|
[|-----------------------------|-----------------------------|
[|-----------------------------|-----------------------------|
[|--------4--4----------4--4-4/|--------7-------------7--7-7/|
[|--x--x--4--4---x---x--4--4-4/|--x--x--7--x---x---x--7--7-7/|
[|--2--2--2--2---2---2--2--2-2/|--5--5--5--5---5---5--5--5-5-|


    Dry                                     Don\'t leave me
[ Gtr. 1
[|--0--0--0--0-0-0-0-0--0--0-0-|--0-0-0-0-0-0-0-0-0-0-0-0-|
[|--0--0--0--0-0-0-0-0--0--0-0-|--0-0-0-0-0-0-0-0-0-0-0-0-|
[|--1--1--1--1-1-1-1-1--1--1-1-|--1-1-1-1-1-1-1-1-1-1-1-1-|
[|--2--2--2--2-2-2-2-2--2--2-2-|--2-2-2-2-2-2-2-2-2-2-2-2-|
[|--2--2--2--2-2-2-2-2--2--2-2-|--2-2-2-2-2-2-2-2-2-2-2-2-|
[|--0--0--0--0-0-0-0-0--0--0-0-|--0-0-0-0-0-0-0-0-0-0-0-0-|
[
[ Gtr. 2
[|-----0--------------0--------|--------------------------|
[|--5-----4---5----5-----4--5--|--5--5--5--5--7--7--9--9--|
[|-----------------------------|--------------------------|
[|-----------------------------|--------------------------|
[|-----------------------------|--------------------------|
[|-----------------------------|--------------------------|
[
[ Gtr. 3
[|-----------------------------|--------------------------|
[|-----------------------------|--------------------------|
[|-----------------------------|--------------------------|
[|--------2--2---2---2---2--2--|--------2--2--2--2--2--2--|
[|--2--2--2--2---2---2---2--2--|--2--2--2--2--2--2--2--2--|
[|--0--0--0--0---0---0---0--0--|--0--0--0--0--0--0--0--0--|


Outro (3:54):

    High
[ Gtr. 1
[|--0--0--0--0-0-0-0-0--0--0-0-|--0--0--0--0-0-0-0-0--0--0-0-|
[|--0--0--0--0-0-0-0-0--0--0-0-|--0--0--0--0-0-0-0-0--0--0-0-|
[|--2--2--2--2-2-2-2-2--2--2-2-|--6--6--6--6-6-6-6-6--6--6-6-|
[|--4--4--4--4-4-4-4-4--4--4-4-|--7--7--7--7-7-7-7-7--7--7-7-|
[|--x--x--x--x-x-x-x-x--x--x-x-|--7--7--7--7-7-7-7-7--7--7-7-|
[|--2--2--2--2-2-2-2-2--2--2-2-|--5--5--5--5-5-5-5-5--5--5-5-|
[
[ Gtr. 2
[|--0--0--0--0---0---0--0--0---|--0---0---0--0---0---0--0--0-|
[|--0--0--0--0---0---0--0--0---|--0---0---0--0---0---0--0--0-|
[|-14-14-13-14--13--11--9-13---|-14--14--14-14--13--11--9-11-|
[|-----------------------------|-----------------------------|
[|-----------------------------|-----------------------------|
[|-----------------------------|-----------------------------|
[
[ Gtr. 3
[|-----------------------------|-----------------------------|
[|-----------------------------|-----------------------------|
[|-----------------------------|-----------------------------|
[|--4--4--4---4---4---4--4--4/-|--7--7--7--7---7---7---7--7/-|
[|--4--4--4---4---4---4--4--4/-|--7--7--7--7---7---7---7--7/-|
[|--2--2--2---2---2---2--2--2/-|--5--5--5--5---5---5---5--5/-|


                                                    Don\'t leave me
[ Gtr. 1
[|--0---0---0---0-0-0-0-0---0--0-0-|--0-0-0--0--0-0-0-0-0--0--0-0-|
[|--0---0---0---0-0-0-0-0---0--0-0-|--0-0-0--0--0-0-0-0-0--0--0-0-|
[|--1---1---1---1-1-1-1-1---1--1-1-|--1-1-1--1--1-1-1-1-1--1--1-1-|
[|--2---2---2---2-2-2-2-2---2--2-2-|--2-2-2--2--2-2-2-2-2--2--2-2-|
[|--2---2---2---2-2-2-2-2---2--2-2-|--2-2-2--2--2-2-2-2-2--2--2-2-|
[|--0---0---0---0-0-0-0-0---0--0-0-|--0-0-0--0--0-0-0-0-0--0--0-0-|
[
[ Gtr. 2
[|-------12--------0--0--0---0--0--|--0---0-----0---0---0-----0---|
[|-----------0-----0--0--0---0--0--|--0------0--0---0---0-----0---|
[|-11/13-------14-11h13-11--11--9--|--9---------9--11--13----13---|
[|---------------------------------|------------------------------|
[|---------------------------------|------------------------------|
[|---------------------------------|------------------------------|
[
[ Gtr. 3
[|---------------------------------|------------------------------|
[|---------------------------------|------------------------------|
[|---------------------------------|------------------------------|
[|--2---2---2---2---2---2---2--2-2-|--2---2---2---2--2--2--2--2-2-|
[|--2---2---2---2---2---2---2--2-2-|--2---2---2---2--2--2--2--2-2-|
[|--0---0---0---0---0---0---0--0-0-|--0---0---0---0--0--0--0--0-0-|


    High                            don\'t leave   me    Dry
[ Gtr. 1
[|--0--0--0--0-0-0-0-0-0-0-0-0-0-|--0----------------|--0----------------|
[|--0--0--0--0-0-0-0-0-0-0-0-0-0-|--0----------------|--0----------------|
[|--2--2--2--2-2-2-2-2-2-2-2-2-2-|--6----------------|--1----------------|
[|--4--4--4--4-4-4-4-4-4-4-4-4-4-|--7----------------|--2----------------|
[|--x--x--x--x-x-x-x-x-x-x-x-x-x-|--7----------------|--2----------------|
[|--2--2--2--2-2-2-2-2-2-2-2-2-2-|--5----------------|--0----------------|
[
[ Gtr. 2
[|--0---0---0---0---0---0---0--0-|-------------------|-------------------|
[|--0---0---0---0---0---0---0--0-|--0----------------|-------------------|
[|--14--14--13--14--13--11--9--1-|--2----------------|-------------------|
[|-------------------------------|--2----------------|-------------------|
[|-------------------------------|--0----------------|-------------------|
[|-------------------------------|-------------------|-------------------|
[
[ Gtr. 3
[|-------------------------------|-------------------|-------------------|
[|-------------------------------|-------------------|-------------------|
[|-------------------------------|-------------------|-------------------|
[|--4--4--4--4---4---4---4---4-4-|-------------------|-------------------|
[|--4--4--4--4---4---4---4---4-4-|-------------------|-------------------|
[|--2--2--2--2---2---2---2---2-2-|-------------------|-------------------|
comments
print report bad tab
22 comments total. Showing first comments.
+6 reply
paul.smethurst wrote on September 2 2004, 12:00 am

Thanx 4 this tab!Everything is perfect except the slide intro tabbed is not correct.I'm pretty sure it uses these chords(gr8 acoustic!):
0 0 0 0 0
0 0 0 0 0
13 11 13 9 9
x x x x x
11 9 11 7 7
x x x x 0

+2 reply
leatherface74 wrote on September 2 2004, 12:00 am

Thanks for the compliment and the vote (this is my tab by the way)! I havent been able to find any footage of this song live so I can confirm those chords. It's weird though, everyone has a different opinion as to what chords those are, I just chose the ones that sounded best and were easiest to transition from to the open chords for the verse.

0 reply
leatherface74 wrote on September 2 2004, 12:00 am

correction: I meant to say "I CAN'T confirm these chords"

I want to post or [tab]
guest
You may want to rate the tab now too:
select rating
Please do not post tabs as comments. Select "correction" instead!