Oops, an error
Loading. Please wait.
We have an official High And Dry tab made by UG professional guitarists. Check out the tab »
×
25,336 views 1,470 this week
3 commentsread comments
1 2 3 4 5
x 28
add to favorites
×
Save as Personal and add changes to this tab that will be seen only by you. Learn more ›
×
You can save this tab as Personal to edit and correct it or add notes. All changes will be seen only by you. Learn more »
save as personal
new!
launch autoscroll
font size
0
reset
transpose
0
reset
simplify chords
display chords
guitar tuner
backing track
0:00
0:00
Autoscroll
slow
fast
+/-
esc
set tempo
stop
Author
Difficulty
intermediate
Strumming
There is no strumming pattern for this song yet. and get +5 IQ
High And Dry by Radiohead


[Intro]

e-----------------------------------------------|
B-----------------------------------------------|
G-13-13-13-13/11--11--11-13-13-13-13/9--9--9--9-|   (Play this twice)
D---------------------------------------------9-|
A-11-11-11-11/9---9---9--11-11-11-11/7--7--7--7-|
E-----------------------------------------------|

Something you should know to play the song:

F#add9                         

e-0--
B-0--
G-2--
D-4--
A-4--
E-x--


[Verse]

F#add9
Two jumps in a week
          Asus2                                E
I bet you think that's pretty clever don't you boy?
F#add9
Flying on your motorcycle
Asus2                               E
Watching all the ground beneath you drop


F#add9
You'd kill yourself for recognition
Asus2                        E
Kill yourself to never, ever stop
F#add9
You broke another mirror
       Asus2                     E
You're turning into something you are not


               F#add9  Asus2             E
Don't leave me high,      don't leave me dry
               F#add9  Asus2             E
Don't leave me high,      don't leave me dry


F#add9  
Drying up in conversation
Asus2                   E
You'll be the one who cannot talk
F#add9
All your insides fall to pieces
Asus2                                 E
You just sit there wishing you could still make love


F#add9
They're the ones who'll hate you
Asus2                                  E
When you think you've got the world all sussed out
F#add9    
They're the ones who'll spit at you
Asus2                E
You'll be the one screaming out


               F#add9  Asus2             E
Don't leave me high,      don't leave me dry
               F#add9  Asus2             E
Don't leave me high,      don't leave me dry

[Solo]

e--------------------------------------------0----------|
B-5-5-4-5--5-4-5--5-4-5-5s7-5-4--5-5-4-5-5-2-0---0--2--4|
G-------------------------------------------------------|     x2
D-------------------------------------------------------|        
A-------------------------------------------------------|
E-------------------------------------------------------|

             F#add9           
Oh, it's the best thing that you ever had
    Asus2                      E
The best thing that you ever, ever had
         F#add9     
It's the best thing that you ever had
    Asus2                        E
The best thing you have had has gone away


               F#add9 Asus2            E
Don't leave me high,      don't leave me dry
               F#add9 Asus2            E
Don't leave me high,      don't leave me dry
               F#add9 Asus2            E
Don't leave me high
               F#add9 Asus2            E
Don't leave me high,      don't leave me dry


[Solo]

e--------------------------------------------0----------|
B-5-5-4-5--5-4-5--5-4-5-5s7-5-4--5-5-4-5-5-2-0---0--2--4|
G-------------------------------------------------------|     (Play this twice)
D-------------------------------------------------------|        
A-------------------------------------------------------|
E-------------------------------------------------------|



************************************

| x  Dead note
| /  Slide up

************************************
Suggest correction
comments
print report bad tab
3 comments total.
0 reply
tylerneverdies 43 Jan 31, 2016 10:41 AM

Change the A chord to an Asus2 (002200)

0 reply
freebird185 30 Dec 07, 2016 07:33 PM

Spot on for simple acoustic cover. Best version of the lot.

guest
You may want to rate the tab now too:
select rating
Wanna post a correction for this tab? Suggest correction