Oops, an error
Loading. Please wait.

How To Disappear Completely tab

version 1
version 1

Whole song

32,374 views 90 this week
1 commentread comment
1 2 3 4 5
x 20
add to favorites
×
Save as Personal and add changes to this tab that will be seen only by you. Learn more ›
×
You can save this tab as Personal to edit and correct it or add notes. All changes will be seen only by you. Learn more »
launch autoscroll
font size
0
reset
how to read this tab
guitar tuner
edit
Autoscroll
slow
fast
+/-
esc
set tempo
stop
Capo on 2 fret

[Intro] 
(same as verse)

[Verse] 
(all of the verse are played the same)
e|--0-0----0--0----0---0---0--0--0--0-0----0-0-0-0--0-0-0--0-0-0-0--0--|
B|--1-1----1--3----3---3---1--1--1--3-3----0-0-0-0--1-1-1--0-0-1-1--0--|
G|--0-0----0--0----0---0---0--0--0--0-0----0-0-0-0--0-0-0--0-0-0-0--0--|
D|--2-2----2--2----2---2---2--2--2--2-2----2-2-2-2--2-2-2--2-2-2-2--2--|
A|--3-3----3--3----3---3---3--3--3--3-3----2-2-2-2--2-2-2--2-2-2-2--2--|
E|-----------------------------------------0-0-0-0--0-0-0--0-0-0-0--0--|
  That there,                 that's not me

[Chorus]
e|----------3-3-3-3-3-3-3---3-3--3--3-3--3------------0-0------0-0--0--|
B|----------0-0-0-0-1-1-1---0-0--0--1-1--1------------0-0------1-1--0--|
G|----------0-0-0-0-0-0-0---0-0--0--0-0--0------------0-0------0-0--0--|
D|----------0-0-0-0-0-0-0---0-0--0--0-0--0------------2-2------2-2--2--|
A|----------2-2-2-2-x-x-x---2-2--2--x-x--x------------2-2------2-2--2--|
E|----------3-3-3-3-3-3-3---3-3--3--3-3--3------------0-0------0-0--0--|
  I'm not here                            This isn't happening

[Outro]
e|----------3-3-3-3-3-3-3---3-3--3--3-3--3------------0-0------0-0--0--|
B|----------0-0-0-0-1-1-1---0-0--0--1-1--1------------0-0------1-1--0--|
G|----------0-0-0-0-0-0-0---0-0--0--0-0--0------------0-0------0-0--0--|
D|----------0-0-0-0-0-0-0---0-0--0--0-0--0------------2-2------2-2--2--|
A|----------2-2-2-2-x-x-x---2-2--2--x-x--x------------2-2------2-2--2--|
E|----------3-3-3-3-3-3-3---3-3--3--3-3--3------------0-0------0-0--0--|
  Im not heeeeeeeeeeeeeeeeeeeeeeere          Im not heeeeeeeeeere

e|------0-0--0-0----0-0--0-0-----------------2-2-3-3--2-2----0------------|
B|------0-0--1-1----0-0--1-1-----------------3-3-3-3--3-3----0------------|
G|------0-0--0-0----0-0--0-0-----------------2-2-2-2--2-2----0------------|
D|------2-2--2-2----2-2--2-2-----------------0-0-0-0--0-0----2------------|
A|------2-2--2-2----2-2--2-2-----------------0-0-0-0--0-0----2------------|
E|------0-0--0-0----0-0--0-0---------------------------------0------------|
  aaaaaaaaaaaaaahhh aaaaaaaaaaaaahhh    whoaaaaaaaaah           etc



************************************

| x  Dead note

************************************

            
            
Suggest correction
Creating personal tab
Creating personal tab
You can edit any tab online and save it as your Personal.

You can edit, replace or remove any tab part or add personal notes – all changes will be seen only by you.

Personal tabs can be accessed anytime from any device, even offline.
Learn more »
comments
print report bad tab
guest
You may want to rate the tab now too:
select rating
Wanna post a correction for this tab? Suggest correction