Oops, an error
Loading. Please wait.

Ill Wind Tab

version 1
version 1

Acoustic

Whole song

  • Different tuning, adjusted chords in the bridge, a... Show more
1,033 views 30 this week
no commentswrite comment
1 2 3 4 5
x 6
add to favorites
launch autoscroll
font size
0
reset
how to read this tab
guitar tuner
Autoscroll
slow
fast
+/-
esc
set tempo
stop
Help us to improve Ultimate-Guitar.com Take our survey!
×
Author
Radiohead - Ill Wind
Drop C Tuning

[Intro]
e|---------------------------------|---------------------------------|
B|---------------------------------|---------------------------------|
G|---------------------------------|---------------------------------|
D|-----5-----5-------5-------------|-----5-----5-------5-------------|
A|-----6-----6-------6-----6-5-----|-----6-----6-------6-----6-5-----|
C|-0-------0-----0-------0-----8-7-|-0-----0-0-----0-------0-----8-7-|

e|---------------------------------|---------------------------------|
B|---------------------------------|---------------------------------|
G|---------------------------------|---------------------------------|
D|-----5-----5-------5-------------|-----5-----5-------5-------------|
A|-----6-----6-------6-----6-5-----|-----6-----6-------6-----6-5-----|
C|-0-----0-0-----0-------0-----8-7-|-0-------0-----0-------0-----8-7-|


[Verse I]
e|---------------------------------|---------------------------------|
B|---------------------------------|---------------------------------|
G|---------------------------------|---------------------------------|
D|-----5-----5-------5-------------|-----5-----5-------5-------------|
A|-----6-----6-------6-----6-5-----|-----6-----6-------6-----6-5-----|
C|-0-----0-0-----0-------0-----8-7-|-0-------0-----0-------0-----8-7-|

e|---------------------------------|---------------------------------|
B|---------------------------------|---------------------------------|
G|---------------------------------|---------------------------------|
D|-----6-----6-------6-------------|-----6-----6-------6-------------|
A|-----8-----8-------8-----6-5-----|-----8-----8-------8-----6-5-----|
C|-0-----0-------0-------0-----8-7-|-0-----0-------0-------0-----8-7-|

e|---------------------------------|---------------------------------|
B|---------------------------------|---------------------------------|
G|---------------------------------|---------------------------------|
D|-----8-----8-------8-------------|-----8-----8-------8-------------|
A|-----8-----8-------8-----6-5-----|-----8-----8-------8-----6-5-----|
C|-0-----0-------0-------0-----8-7-|-0-----0-------0-------0-----8-7-|

e|---------------------------------|---------------------------------|
B|---------------------------------|---------------------------------|
G|---------------------------------|---------------------------------|
D|-----6-----6-------6---------5---|-----6-----6-------6-------5-----|
A|-----3-----3-------3---------3---|-----3-----3-------3-------3-----|
C|-5-----5-5-----5-------0h3-----3-|-5-----5-5-----5-------5-----5---|







[Chorus]
e|---------------------------------|---------------------------------|
B|---------------------------------|---------------------------------|
G|---------------------------------|---------------------------------|
D|-----5-----5-------5---------3---|-----5-----5-------5-----3---5---|
A|-----3-----3-------3---------3---|-----3-----3-------3-----3---3---|
C|-3-----3-3-----3-------3-2-------|-3-----3-3-----3-------2---3-----|

e|---------------------------------|---------------------------------|
B|---------------------------------|---------------------------------|
G|---------------------------------|---------------------------------|
D|-----5-----5-------5---------3---|-----5-----5-------5-----3---5---|
A|-----3-----3-------3---------3---|-----3-----3-------3-----3---3---|
C|-3-----3-3-----3-------3-2-------|-3-----3-3-----3-------2---3-----|

[Verse II] - Same as the first, minor variations

[Chorus]

[Break]
e|---------------------------------|---------------------------------|
B|---------------------------------|---------------------------------|
G|-----8-----8-------8-------------|-----8-----8-------8-------------|
D|-----5-----5-------5-------------|-----5-----5-------5-------------|
A|-----6-----6-------6---------5-6-|-----6-----6-------6---------5---|
C|-0-----0-------0---------7-8-----|-0-----0-------0-------7-8-------|

e|---------------------------------|---------------------------------|
B|---------------------------------|---------------------------------|
G|-----8-----8-------8-------------|-----8-----8-------8-------------|
D|-----5-----5-------5-------------|-----5-----5-------5-------------|
A|-----6-----6-------6---------5-6-|-----6-----6-------6---------5-6-|
C|-0-----0-------0---------7-8-----|-0-----0-------0---------7-8-----|

e|---------------------------------|---------------------------------|
B|---------------------------------|---------------------------------|
G|-----8-----8-------8-------------|-----8-----8-------5-------------|
D|-----6-----6-------6-------------|-----6-----6-------6-------------|
A|-----8-----8-------8---------5-6-|-----8-----8-------8---------5-6-|
C|-0-------0-----0---------7-8-----|-0-------0-----0---------7-8-----|

e|---------------------------------|---------------------------------|
B|-----6-----6-------6-------------|-----6-----6-------6-------------|
G|-----5-----5-------5-------------|-----5-----5-------5-------------|
D|-----6-----6-------6-------------|-----6-----6-------6-------------|
A|-----------------------------5-6-|-----------------------------5-6-|
C|-0-------0-----0---------7-8-----|-0-------0-----0---------7-8-----|

e|---------------------------------|---------------------------------|
B|-----5-----5-------5-------------|-----5-----5-------5-------------|
G|-----5-----5-------5-------------|-----5-----5-------5-------------|
D|-----5-----5-------5-------------|-----5-----5-------5-------------|
A|-----------------------------5-6-|-----------------------------5-6-|
C|-0-------0-----0---------7-8-----|-0-------0-----0---------7-8-----|

e|---------------------------------|---------------------------------|
B|---------------------------------|---------------------------------|
G|-----6-----6-------6-------------|-----6-----6-------6-------------|
D|-----6-----6-------6-------------|-----6-----6-------6-------------|
A|-----8-----8-------8---------5-6-|-----8-----8-------8---------5-6-|
C|-0-------0-----0---------7-8-----|-0-------0-----0---------7-8-----|

e|---------------------------------|---------------------------------|
B|---------------------------------|---------------------------------|
G|-----5-----5-------5-------------|-----5-----5-------5-------------|
D|-----5-----5-------5-------------|-----5-----5-------5-------------|
A|-----7-----7-------7---------5-6-|-----7-----7-------7---------3-5-|
C|-0-------0-----0---------7-8-----|-0-------0-----0---------5-7-----|

e|---------------------------------|---------------------------------|
B|---------------------------------|---------------------------------|
G|-----3-----3-------3-------------|-----3-----3-------3-------------|
D|-----3-----3-------3-------------|-----3-----3-------3-------------|
A|-----5-----5-------5---------3-5-|-----5-----5-------5---------3-5-|
C|-0-------0-----0---------5-7-----|-0-------0-----0---------5-7-----|

e|---------------------------------|---------------------------------|
B|---------------------------------|---------------------------------|
G|-----1-----1-------1-------------|-----1-----1-------1-------------|
D|-----3-----3-------3-------------|-----3-----3-------3-------------|
D|-----3-----3-------3---------3-5-|-----3-----3-------3---------3-5-|
C|-0-------0-----0---------5-7-----|-0-------0-----0---------5-7-----|

e|---------------------------------|---------------------------------|
B|-----5-----5-------5-------------|-----5-----5-------5-------------|
G|-----5-----5-------5-------------|-----5-----5-------5-------------|
D|-----5-----5-------5-------------|-----5-----5-------5-------------|
A|-----------------------------5-6-|-----------------------------5-6-|
C|-0-------0-----0---------7-8-----|-0-------0-----0---------7-8-----|


[Verse III]
e|---------------------------------|---------------------------------|
B|-----4-----4-------4-------------|-----4-----4-------4-------------|
G|-----5-----5-------5-----8p7-----|-----5-----5-------5---------7---|
D|-----5-----5-------5---------6\5-|-----5-----5-------5---5h6-------|
A|---------------------------------|---------------------------------|
C|-0-----0-0-----0-------0---------|-0-----0-0-----0-----------------|


e|-----------4-------4-------------|-----4-----4-------4-------------|
B|-----6-----6-------6-------------|-----6-----6-------6-------------|
G|-----5-----------------------7---|-------------------------8p7-----|
D|-----------------------5h6-------|-----------------------------6\5-|
A|---------------------------------|---------------------------------|
C|-0-----0-0-----0-----------------|-0-----0-0-----0-----------------|


e|-----6-----6-------6-------------|-----6-----6-------6-------------|
B|-----6-----6-------6-------------|-----6-----6-------6-------------|
G|-------------------------8p7-----|-------------------------8p7-----|
D|-----------------------------6\5-|-----------------------------6\5/|
A|---------------------------------|---------------------------------|
C|-0-----0-0-----0-----------------|-0-----0-0-----0-----------------|


e|-----8-----8-------8---------6---|-----8-----8-------8-----8---8---|
B|-----8-----8-------8---------6---|-----8-----8-------8---6---6-8---|
G|---------------------------------|---------------------------------|
D|/6-----6-------6-------6-5-------|-6-----6-------6-------6---6-----|
A|---------------------------------|---------------------------------|
C|---------------------------------|---------------------------------|


[Chorus]
e|---------------------------------|---------------------------------|
B|-----8-----8-------8-----6---6---|-----8-----8-------8-----6---8---|
G|-----8-----8-------8-----7---7---|-----8-----8-------8-----7---8---|
D|---------------------------------|---------------------------------|
A|-6-----6-------6-------6-----8---|-6-------6-----6-------5---6-----|
C|---------------------------------|---------------------------------|


e|---------------------------------|---------------------------------|
B|-----9-----9-------9-----8---8---|-----9-----9-------9-----8---8---|
G|-----10----10------10----8---8---|-----10----10------10----8---8---|
D|---------------------------------|---------------------------------|
A|-8-----8-8-----8-------6---6-----|-8-----8-8-----8-------6---6-----|
C|---------------------------------|---------------------------------|
Suggest correction
comments
print report bad tab
guest
You may want to rate the tab now too:
select rating
Wanna post a correction for this tab? Suggest correction