Oops, an error
Loading. Please wait.

Ill Wind Tab

version 1
version 1

Whole song

  • Different tuning, adjusted chords in the bridge, a... Show more
358 views 9 this week
no commentswrite comment
1 2 3 4 5
1 last vote to show rating
add to favorites
launch autoscroll
font size
0
reset
how to read this tab
guitar tuner
Autoscroll
slow
fast
+/-
esc
set tempo
stop
Help us to improve Ultimate-Guitar.com Take our survey!
×
Author
Difficulty
Tuning
intermediate
C G C F A D
About this tab version
Different tuning, adjusted chords in the bridge, additional guitar and keyboard parts. Was this info helpful? Yes No
Radiohead
"Ill Wind"

Drop C Tuning. Corrections and additions welcome!


[Intro]
  G1
D|--------------------------------|--------------------------------|
A|--------------------------------|--------------------------------|
F|--------------------------------|--------------------------------|
C|----7-----7-------7-------------|----7-----7-------7-------------|
G|----8-----8-------8-----8-7-----|----8-----8-------8-----8-7-----|
C|0-----0-------0-------------8-7-|0-----0-x-----0-------------8-7-|

D|--------------------------------|--------------------------------|
A|--------------------------------|--------------------------------|
F|--------------------------------|--------------------------------|
C|----7-----7-------7-------------|----7-----7-------7-------------|
G|----8-----8-------8-----8-7-----|----8-----8-------8-----8-7-----|
C|0-----0-------0-------------8-7-|0-----0-------0-------------8-7-|


[Verse]

D|--------------------------------|--------------------------------|
A|--------------------------------|--------------------------------|
F|--------------------------------|--------------------------------|
C|----7-----7-------7-------------|----7-----7-------7-------------|
G|----8-----8-------8-----8-7-----|----8-----8-------8-----8-7-----|
C|0-----0-x-----0-------------8-7-|0-----0-------0-------------8-7-|

D|--------------------------------|--------------------------------|
A|--------------------------------|--------------------------------|
F|--------------------------------|--------------------------------|
C|----8-----8-------8-------------|----8-----8-------8-------------|
G|----10----10------10----8-7-----|----10----10------10----8-7-----|
C|0-----0-------0-------------8-7-|0-----0-x-----0-------------8-7-|

D|--------------------------------|--------------------------------|
A|--------------------------------|--------------------------------|
F|--------------------------------|--------------------------------|
C|----10----10------10------------|----10----10------10------------|
G|----10----10------10----8-7-----|----10----10------10----8-7-----|
C|0-----0-x-----0-------------8-7-|0-----0-x-----0-------------8-7-|

D|--------------------------------|--------------------------------|
A|--------------------------------|--------------------------------|
F|----3-----3-------3---------2---|----3-----3-------3-------2-----|
C|----0-----0-------0---------0---|----0-----0-------0-------0-----|
G|--------------------------------|--------------------------------|
C|5-----5-5-----5-------0h3-------|5-----5-5-----5-------5-----5---|


[Chorus]

D|--------------------------------|--------------------------------|
A|--------------------------------|--------------------------------|
F|----2-----2-------2---------0---|----2-----2-------2-----0---2---|
C|----0-----0-------0---------0---|----0-----0-------0-----0---0---|
G|--------------------------------|--------------------------------|
C|3-----3-3-----3-------3-2-------|3-----3-3-----3-------2---3-----|

D|--------------------------------|--------------------------------|
A|--------------------------------|--------------------------------|
F|----3-----3-------3---------2---|----3-----3-------3-------2-----|
C|----0-----0-------0---------0---|----0-----0-------0-------0-----|
G|--------------------------------|--------------------------------|
C|5-----5-5-----5-------0h3-------|5-----5-5-----5-------5-----5---|

D|--------------------------------|--------------------------------|
A|--------------------------------|--------------------------------|
F|--------------------------------|--------------------------------|
C|----7-----7-------7-------------|----7-----7-------7-------------|
G|----8-----8-------8-----8-7-----|----8-----8-------8-----8-7-----|
C|0-----0-------0-------------8-7-|0-----0-x-----0-------------8-7-|


[Verse]
  G2 (two parts arranged for one guitar)
D|13~-----------------------------|-------------------------------\|
A|--------------------------------|--------------------------------|
F|10~-----------------------------|-------------------------------/|
C|--------------------------------|--------------------------------|
G|--------------------------------|--------------------------------|
C|--------------------------------|--------------------------------|
 |G1
D|--------------------------------|--------------------------------|
A|--------------------------------|--------------------------------|
F|--------------------------------|--------------------------------|
C|----7-----7-------7-------------|----7-----7-------7-------------|
G|----8-----8-------8-----8-7-----|----8-----8-------8---------7---|
C|0-----0-------0-------------8-7-|0-----0-0-----0-------7-8-------|


D|6~------------------------------|-------------------------------/|
A|8~------------------------------|-------------------------------/|
F|--------------------------------|--------------------------------|
C|--------------------------------|--------------------------------|
G|--------------------------------|--------------------------------|
C|--------------------------------|--------------------------------|
 |
D|--------------------------------|--------------------------------|
A|--------------------------------|--------------------------------|
F|--------------------------------|--------------------------------|
C|----8-----8-------8-------------|----8-----8-------8-------------|
G|----10----10------10----8-7-----|----10----10------10----8-7-----|
C|0-----0-x-----0-------------8-7-|0-----0-------0-------------8-7-|


D|12~-----------------------------|-------------------------------\|
A|--------------------------------|--------------------------------|
F|9~------------------------------|-------------------------------\|
C|--------------------------------|--------------------------------|
G|--------------------------------|--------------------------------|
C|--------------------------------|--------------------------------|
 |
D|--------------------------------|--------------------------------|
A|--------------------------------|--------------------------------|
F|--------------------------------|--------------------------------|
C|----10----10------10------------|----10----10------10------------|
G|----10----10------10----8-7-----|----10----10------10----8-7-----|
C|0-----0-------0-------------8-7-|0-----0-0-----0-------------8-7-|


D|5~------------------------------|--------------------------------|
A|6~------------------------------|--------------------------------|
F|--------------------------------|--------------------------------|
C|--------------------------------|--------------------------------|
G|--------------------------------|--------------------------------|
C|--------------------------------|--------------------------------|
 |
D|--------------------------------|--------------------------------|
A|--------------------------------|--------------------------------|
F|----3-----3-------3---------2---|----3-----3-------3-----2---2---|
C|----0-----0-------0---------0---|----0-----0-------0-----0---0---|
G|--------------------------------|--------------------------------|
C|5-----5-5-----5-------0h3-------|5-----5-5-----5-------5---5-----|


[Chorus]

D|10~-----------------------------|(10)~---------------------------|
A|11------------------------------|-13~----------------------------|
F|--------------------------------|--------------------------------|
C|--------------------------------|--------------------------------|
G|--------------------------------|--------------------------------|
C|--------------------------------|--------------------------------|
 |
D|--------------------------------|--------------------------------|
A|--------------------------------|--------------------------------|
F|----2-----2-------2---------0---|----2-----2-------2-----0---2---|
C|----0-----0-------0---------0---|----0-----0-------0-----0---0---|
G|--------------------------------|--------------------------------|
C|3-----3-3-----3-------3-2-------|3-----3-3-----3-------2---3-----|


D|10~-----------------------------|--------------------------------|
A|--------------------------------|--------------------------5~----|
F|10~-----------------------------|--------------------------------|
C|--------------------------------|--------------------------------|
G|--------------------------------|--------------------------------|
C|--------------------------------|--------------------------------|
 |
D|--------------------------------|--------------------------------|
A|--------------------------------|--------------------------------|
F|----3-----3-------3---------2---|----3-----3-------3---------2---|
C|----0-----0-------0---------0---|----0-----0-------0---------0---|
G|--------------------------------|--------------------------------|
C|5-----5-5-----5-------0h3-------|5-----5-5-----5-------5-5-5---5-|


[Bridge]
  G3
D|------------------------------------------------|------------------------------------------------|
A|------------13-15-13-------------13-15-15-------|------13-15-13-------------13-15-13-------------|
F|------14-15----------14----14-------------14-15-|14-15----------14-15-14-15----------14-15-14-15-|
C|------------------------------------------------|------------------------------------------------|
G|------------------------------------------------|------------------------------------------------|
C|------------------------------------------------|------------------------------------------------|
 |G2                                                                  fade out
D|------------------------------------------------|------------------------------------------------|
A|(5)~--------------------------------------------|------------------------------------------------|
F|-7~---------------------------------------------|------------------------------------------------|
C|------------------------------------------------|------------------------------------------------|
G|------------------------------------------------|------------------------------------------------|
C|------------------------------------------------|------------------------------------------------|
 |G1
D|------------------------------------------------|------------------------------------------------|
A|------------------------------------------------|------------------------------------------------|
F|------------------------------------------------|------------------------------------------------|
C|------7--------7-----------7--------------------|------7--------7-----------7--------------------|
G|------8--------8-----------8--------------7--8--|------8--------8-----------8--------------7--8--|
C|0--------0-----------0--------------7--8--------|0--------0-----------0--------------7--8--------|

  G3
D|------------------------------------------------|------------------------------------------------|
A|------------15-17-15-------------15-17-15-------|------13-15-13-------------13-15-13-------------|
F|15-17-15-17-------------17-15-17-------------17-|---17-------------17----17-------------17----17-|
C|------------------------------------------------|------------------------------------------------|
G|------------------------------------------------|------------------------------------------------|
C|------------------------------------------------|------------------------------------------------|
 |G1
D|------------------------------------------------|------------------------------------------------|
A|------------------------------------------------|------------------------------------------------|
F|------------------------------------------------|------------------------------------------------|
C|------7--------7-----------7--------------------|------7--------7-----------7--------------------|
G|------8--------8-----------8--------------7--8--|------8--------8-----------8--------------7--8--|
C|0--------0-----------0--------------7--8--------|0--------0-----------0--------------7--8--------|

  G3
D|------------------------------------------------|------------------------------------------------|
A|------------13-15-13-------------13-15-15-------|------13-15-13-------------13-15-13-------------|
F|------14-15----------14----14-------------14-15-|14-15----------14-15-14-15----------14-15-14-15-|
C|------------------------------------------------|------------------------------------------------|
G|------------------------------------------------|------------------------------------------------|
C|------------------------------------------------|------------------------------------------------|
 |G4 Keyboards take over, notes in ( ) optional
D|------------------------------------------------|------------------------------------------------|
A|------------------------------------------------|------------------------------------------------|
F|------10-------10----------10-------------------|------10-------10----------9-------------------|
C|------7--------7-----------7--------------------|------7--------7-----------7--------------------|
G|-----(8)------(8)---------(8)-------------7--8--|-----(8)------(8)---------(7)-------------7--8--|
C|0--------0-----------0--------------7--8--------|0--------0-----------0--------------7--8--------|

  Lead line loops throughout the Bridge
D|------------------------------------------------|------------------------------------------------|
A|------------15-17-15-------------15-17-15-------|------13-15-13-------------13-15-13-------------|
F|15-17-15-17-------------17-15-17-------------17-|---17-------------17----17-------------17----17-|
C|------------------------------------------------|------------------------------------------------|
G|------------------------------------------------|------------------------------------------------|
C|------------------------------------------------|------------------------------------------------|
 |
D|------------------------------------------------|------------------------------------------------|
A|------------------------------------------------|------------------------------------------------|
F|------12-------12----------12-------------------|------12-------12----------12-------------------|
C|------8--------8-----------8--------------------|------8--------8-----------8--------------------|
G|-----(10)-----(10)--------(10)------------7--8--|-----(10)-----(10)--------(10)------------7--8--|
C|0--------0-----------0--------------7--8--------|0--------0-----------0--------------7--8--------|


D|------------------------------------------------|------------------------------------------------|
A|------------17-18-17-------------17-18-17-------|------17-18-17-------------17-18-17-------------|
F|17-19-17-19----------17----17-19----------17-19-|17-------------17-19-17-19----------17-19-17-19-|
C|------------------------------------------------|------------------------------------------------|
G|------------------------------------------------|------------------------------------------------|
C|------------------------------------------------|------------------------------------------------|
 |
D|------------------------------------------------|------------------------------------------------|
A|------7--------7-----------7--------------------|------7--------7-----------7--------------------|
F|------7--------7-----------7--------------------|------7--------7-----------7--------------------|
C|-----(7)------(7)---------(7)-------------------|-----(7)------(7)---------(7)-------------------|
G|------------------------------------------7--8--|------------------------------------------7--8--|
C|0--------0-----------0--------------7--8--------|0--------0-----------0--------------7--8--------|


D|------------------------------------------------|------------------------------------------------|
A|------------17-18-17-------------17-18-17-------|------17-18-17-------------17-18-17-------------|
F|17-19-17-19----------17----17-19----------17-19-|17-------------17-19-17-19----------17-19-17-19-|
C|------------------------------------------------|------------------------------------------------|
G|------------------------------------------------|------------------------------------------------|
C|------------------------------------------------|------------------------------------------------|
 |
D|------------------------------------------------|------------------------------------------------|
A|------8--------8-----------8--------------------|------8--------8-----------8--------------------|
F|------8--------8-----------8--------------------|------8--------8-----------8--------------------|
C|------------------------------------------------|------------------------------------------------|
G|------------------------------------------7--8--|------------------------------------------7--8--|
C|0--------0-----------0--------------7--8--------|0--------0-----------0--------------7--8--------|


D|------------------------------------------------|------------------------------------------------|
A|------------17-18-17-------------17-18-17-------|------17-18-17-------------17-18-17-------------|
F|17-19-17-19----------17----17-19----------17-19-|17-------------17-19-17-19----------17-19-17-19-|
C|------------------------------------------------|------------------------------------------------|
G|------------------------------------------------|------------------------------------------------|
C|------------------------------------------------|------------------------------------------------|
 |
D|------------------------------------------------|------------------------------------------------|
A|------7--------7-----------7--------------------|------7--------7-----------7--------------------|
F|------7--------7-----------7--------------------|------7--------7-----------7--------------------|
C|------------------------------------------------|------------------------------------------------|
G|------------------------------------------7--8--|------------------------------------------7--8--|
C|0--------0-----------0--------------7--8--------|0--------0-----------0--------------7--8--------|


D|------------------------------------------------|------------------------------------------------|
A|------------17-18-17-------------17-18-17-------|------17-18-17-------------17-18-17-------------|
F|17-19-17-19----------17----17-19----------17-19-|17-------------17-19-17-19----------17-19-17-19-|
C|------------------------------------------------|------------------------------------------------|
G|------------------------------------------------|------------------------------------------------|
C|------------------------------------------------|------------------------------------------------|
 |
D|------------------------------------------------|------------------------------------------------|
A|------5--------5-----------5--------------------|------5--------5-----------5--------------------|
F|------5--------5-----------5--------------------|------5--------5-----------5--------------------|
C|------------------------------------------------|------------------------------------------------|
G|------------------------------------------7--8--|------------------------------------------7--8--|
C|0--------0-----------0--------------7--8--------|0--------0-----------0--------------7--8--------|


D|------------------------------------------------|------------------------------------------------|
A|------------17-18-17-------------17-18-17-------|------17-18-17-------------17-18-17-------------|
F|17-19-17-19----------17----17-19----------17-19-|17-------------17-19-17-19----------17-19-17-19-|
C|------------------------------------------------|------------------------------------------------|
G|------------------------------------------------|------------------------------------------------|
C|------------------------------------------------|------------------------------------------------|
 |
D|------------------------------------------------|------------------------------------------------|
A|------3--------3-----------3--------------------|------3--------3-----------3--------------------|
F|------3--------3-----------3--------------------|------3--------3-----------3--------------------|
C|------------------------------------------------|------------------------------------------------|
G|------------------------------------------7--8--|------------------------------------------7--8--|
C|0--------0-----------0--------------7--8--------|0--------0-----------0--------------7--8--------|


D|------------------------------------------------|------------------------------------------------|
A|------------17-18-17-------------17-18-17-------|------17-18-17-------------17-18-17-------------|
F|17-19-17-19----------17----17-19----------17-19-|17-------------17-19-17-19----------17-19-17-19-|
C|------------------------------------------------|------------------------------------------------|
G|------------------------------------------------|------------------------------------------------|
C|------------------------------------------------|------------------------------------------------|
 |
D|------------------------------------------------|------------------------------------------------|
A|------7--------7-----------7--------------------|------7--------7-----------7--------------------|
F|------7--------7-----------7--------------------|------7--------7-----------7--------------------|
C|------------------------------------------------|------------------------------------------------|
G|------------------------------------------7--8--|------------------------------------------7--8--|
C|0--------0-----------0--------------7--8--------|0--------0-----------0--------------7--8--------|


D|------------------------------------------------|------------------------------------------------|
A|------------17-18-17-------------17-18-17-------|------17-18-17-------------17-18-17-------------|
F|17-19-17-19----------17----17-19----------17-19-|17-------------17-19-17-19----------17-19-17-19-|
C|------------------------------------------------|------------------------------------------------|
G|------------------------------------------------|------------------------------------------------|
C|------------------------------------------------|------------------------------------------------|
 |
D|------------------------------------------------|------------------------------------------------|
A|------7--------7-----------7--------------------|------7--------7-----------7--------------------|
F|------7--------7-----------7--------------------|------7--------7-----------7--------------------|
C|------------------------------------------------|------------------------------------------------|
G|------------------------------------------7--8--|------------------------------------------7--8--|
C|0--------0-----------0--------------7--8--------|0--------0-----------0--------------7--8--------|


[Verse]
  G4
D|--------------------------------|--------------------------------|
A|----6-----6-------6-----5p6-----|----6-----6-------6---------5---|
F|----7-----7-------7-------------|----7-----7-------7-------------|
C|0-----0-------0-------------8p7-|0-----0-------0-------7h8-------|
G|--------------------------------|--------------------------------|
C|--------------------------------|--------------------------------|

D|----------6-------6-------------|----6-----6-------6-------------|
A|----8-----8-------8---------5---|----8-----8-------8-----5p6-----|
F|----7---------------------------|--------------------------------|
C|0-----0-------0-------7h8-------|0-----0-------0-------------8p7-|
G|--------------------------------|--------------------------------|
C|--------------------------------|--------------------------------|


D|----8-----8-------8-------------|----8-----8-------8-------------|
A|----8-----8-------8-----5p6-----|----8-----8-------8-----5p6-----|
F|--------------------------------|--------------------------------|
C|0-----0-------0-------------8p7-|0-----0-------0-------------8p7-|
G|--------------------------------|--------------------------------|
C|--------------------------------|--------------------------------|


D|----10----10------10--------8---|----10----10------10----8---8---|
A|----10----10------10--------10--|----10----10------10----10--10--|
F|--------------------------------|--------------------------------|
C|8-----8-------8-------8-7-------|8-----8-------8-------8---8-----|
G|--------------------------------|--------------------------------|
C|--------------------------------|--------------------------------|


[Chorus]

D|--------------------------------|--------------------------------|
A|----10----10------10----8---8---|----10----10------10----8---10--|
F|----10----10------10----9---9---|----10----10------10----9---10--|
C|--------------------------------|--------------------------------|
G|8-----8-------8-------8-----10--|8-----8-------8-------7---8-----|
C|--------------------------------|--------------------------------|

D|--------------------------------|--------------------------------|
A|----11----11------11----10--10--|----11----11------11----10--10--|
F|----12----12------12----10--10--|----12----12------12----10--10--|
C|--------------------------------|--------------------------------|
G|10----10------10------8---8-----|10----10------10------8---8-----|
C|--------------------------------|--------------------------------|


[End]
 G6 (Programmed Synth divided into G4,5,6 for clarity)
D|------------------------------------------------|------------------------------------------------|
A|------------------------------------------------|------------------------------------------------|
F|17----17----17-------17----17----17-17----17----|17----17-------17----17----17-17----17----17----|
C|------------------------------------------------|------------------------------------------------|
G|------------------------------------------------|------------------------------------------------|
C|------------------------------------------------|------------------------------------------------|
 |G5
D|15-14----------15-14----------15-14----------15-|14----------15-14----------15-14----------15-14-|
A|------17-15----------17-15----------17-15-------|---17-15----------17-15----------17-15----------|
F|------------17-------------17-------------17----|---------17-------------17-------------17-------|
C|------------------------------------------------|------------------------------------------------|
G|------------------------------------------------|------------------------------------------------|
C|------------------------------------------------|------------------------------------------------|
 | G3
D|------------17-18-17-------------17-18-17-------|------17-18-17-------------17-18-17-18-20-22-20-|
A|19-20-19-20----------19-20-19-20----------19-20-|19-20----------19-20-19-20----------------------|
F|------------------------------------------------|------------------------------------------------|
C|------------------------------------------------|------------------------------------------------|
G|------------------------------------------------|------------------------------------------------|
C|------------------------------------------------|------------------------------------------------|
 |G4                                                                    fade out
D|------------------------------------------------|------------------------------------------------|
A|6~----------------------------------------------|------------------------------------------------|
F|7~----------------------------------------------|------------------------------------------------|
C|------------------------------------------------|------------------------------------------------|
G|5~----------------------------------------------|------------------------------------------------|
C|------------------------------------------------|------------------------------------------------|

  G5
D|---------15-14---------15-14----------15-14-----|------15-14----------15-14----------------------|
A|17-15----------17-15----------17-15----------17-|15----------17-15----------17-15----15-17-15-17-|
F|------17-------------17-------------17----------|---17-------------17-------------17-------------|
C|------------------------------------------------|------------------------------------------------|
G|------------------------------------------------|------------------------------------------------|
C|------------------------------------------------|------------------------------------------------|
 |G3
D|17-18-17-18-20-22-20-17-18-17-18-20-22-20-17-18-|17-18-20-22-20-17-18-17-18-17-18-17-18-20-22-20-|
A|------------------------------------------------|------------------------------------------------|
F|------------------------------------------------|------------------------------------------------|
C|------------------------------------------------|------------------------------------------------|
G|------------------------------------------------|------------------------------------------------|
C|------------------------------------------------|------------------------------------------------|


D|14----------15-14-------14-15-14----------15-14-|---------15-14----------------15-13-12-------15-|
A|---17-15----------17-15----------17-15----------|17-15----------17-15-------------------15-13----|
F|---------17----------------------------17-------|------17-------------17-------------------------|
C|------------------------------------------------|------------------------------------------------|
G|------------------------------------------------|------------------------------------------------|
C|------------------------------------------------|------------------------------------------------|
 |
D|17-18-17-18-20-22-20-17-18-17-18-20-22-20-17-18-|17-18-20-22-20-17-18-17-18----20-18-20-22-24-22-|
A|------------------------------------------------|------------------------------------------------|
F|------------------------------------------------|------------------------------------------------|
C|------------------------------------------------|------------------------------------------------|
G|------------------------------------------------|------------------------------------------------|
C|------------------------------------------------|------------------------------------------------|


D|13-12-------15-13-12-------15-13-12-------------|15-14-------15-14----------15-14----------15-14-|
A|------15-13----------15-13----------15-13-15-13-|------17-15-------17-15----------17-15----------|
F|------------------------------------------------|------------------------17-------------17-------|
C|------------------------------------------------|------------------------------------------------|
G|------------------------------------------------|------------------------------------------------|
C|------------------------------------------------|------------------------------------------------|
 |
D|18-20-18-20-22-24-22-18-20-18-20-22-24-22-18-20-|18-20-22-24-22-18-20-18-22-20-22-20-18-20-18-20-|
A|------------------------------------------------|------------------------------------------------|
F|------------------------------------------------|------------------------------------------------|
C|------------------------------------------------|------------------------------------------------|
G|------------------------------------------------|------------------------------------------------|
C|------------------------------------------------|------------------------------------------------|

                             fade out
D|---------15-14-------15-------15-13-12-------15-|
A|17-15----------17-15-------------------15-13----|
F|------17----------------------------------------|
C|------------------------------------------------|
G|------------------------------------------------|
C|------------------------------------------------|
 |                           fade out
D|22-24-22-18-20-18-20-22-24-22-18-20-18-20-22-24-|
A|------------------------------------------------|
F|------------------------------------------------|
C|------------------------------------------------|
G|------------------------------------------------|
C|------------------------------------------------|



***********************************
| /   Slide up
| \   Slide down
| h   Hummer-on
|( )  Keep holding note
| p   Pull-off
| ~   Vibrato
| x   Dead note
***********************************
Suggest correction
Give kudos to tab author, rate the tab!
1 2 3 4 5
comments
print report bad tab
guest
You may want to rate the tab now too:
select rating
Wanna post a correction for this tab? Suggest correction