Oops, an error
Loading. Please wait.

Jigsaw Falling Into Place intro tab

version 1
version 1

Intro

Whole song

Interactive

54,060 views 3 this week
5 commentsread comments
1 2 3 4 5
x 8
add to favorites
×
Save as Personal and add changes to this tab that will be seen only by you. Learn more ›
×
You can save this tab as Personal to edit and correct it or add notes. All changes will be seen only by you. Learn more »
launch autoscroll
font size
0
reset
how to read this tab
guitar tuner
edit
Autoscroll
slow
fast
+/-
esc
set tempo
stop
e||----------------------------------|
B||----------------------------------|
G||------7-----7---7-----7-----7---7-|
D||----9-----9---------9-----9-------|
A||----------------------------------|
D||--9-----9-----9---9-----9-----9---|


----------------------------------|
----------------------------------|
------7-----7---7-----7-----7---7-|
----9-----9---------9-----9-------|
----------------------------------|
--9-----9-----9---9-----9-----9---|


----------------------------------|
----------------------------------|
------6-----6---6-----6-----6---6-|
----8-----8---------8-----8-------|
----------------------------------|
--8-----8-----8---8-----8-----8---|


 
----------------------------------|
----------------------------------|
------6-----6---6-----4-----4---4-|
----7-----7---------0-----0-------|
----------------------------------|
--0-----0-----0---0-----0-----0---|


----------------------------------|
----------------------------------|
------0-----4---6-----6-----7---7-|
----0-----0---------0-----0-------|
----------------------------------|
--5-----5-----5---4-----4-----4---|


  
-----------------------------------||
-----------------------------------||
------0-----4---6-----6-----7---7-*||
----0-----0---------0-----0-------*||
-----------------------------------||
--5-----5-----5---4-----4-----4----||

            
            
Suggest correction
Creating personal tab
Creating personal tab
You can edit any tab online and save it as your Personal.

You can edit, replace or remove any tab part or add personal notes – all changes will be seen only by you.

Personal tabs can be accessed anytime from any device, even offline.
Learn more »
comments
print report bad tab
5 comments total. Showing first comments.
0 reply
mjuul1 254 Oct 18, 2007 02:35 PM

It needs more work I would say...

0 reply
Callo 141 Oct 18, 2007 11:45 PM

bit more work would be good, but not too bad, good effort

0 reply
JimmyMac5 10 Oct 23, 2007 11:24 AM

There are multiple notes played at the same time in the last 16 beats, but if you wish to keep same picking pattern as the first 32 beats, try this over the last 16...
e---------------------------------)
B---------------------------------)
G-----------4---6-----6-----7-6---)
D-----4-------------------4-----4-)
A---5-----5---------4-------------)
D-5-----5-----5---4-----4---------)

(--------------------------------)
(--------------------------------)
(----------4---6-----6-----------)
(----4-------------4-------4-*-*-)
(--5-----5---------------4-------)
(5-----5-----5---4-----4---------)

guest
You may want to rate the tab now too:
select rating
Wanna post a correction for this tab? Suggest correction