Oops, an error
Loading. Please wait.

Just Tab

version 1
version 1

Whole song

Interactive

163,472 views 171 this week
15 commentsread comments
1 2 3 4 5
x 32
add to favorites
launch autoscroll
font size
0
reset
how to read this tab
guitar tuner
Autoscroll
slow
fast
+/-
esc
set tempo
stop
Help us to improve Ultimate-Guitar.com Take our survey!
×
Author/Artist: Radiohead
Title: Just
Album: The bends
Transcribed by: Bernard Chhun
Email: bernardchhun@hotmail.com

I'm so sick of seeing those false versions of this song
Here's the right way to play it..

e|-|------------------------------|--------------------------------------|------|
B|-|--5----5-x-x-x-8--8--8---7-7--|--7--7---7----7-7-----10-10----10-----|------|
G|-|--5----5-x-x-x-8--8--8---7-7--|--7--7---7----7-7-----10-10----10-----|------|
D|-|--5----5-x-x-x-8--8--8---7-7--|--7--7---7----7-7-----10-10----10-----|------|
A|-|--3----3-x-x-x-6--6--6---5-5--|--5--5---5----5-5-----8--8-----8------|------|
E|-|------------------------------|--------------------------------------|------|
 intro with acoustic guitar                 repeat this lick 2 times

e|-|---------------------|--------------------|-----------------------|---------|
B|-|---------------------|--------------------|-------15-16--------18-|---------|
G|-|--5----5--8-8-8---10-|-11----13-14-----16-|-17--------------------|---------|
D|-|---------------------|--------------------|-------12-13--------15-|---------|
A|-|--3----3--6-6-6---8--|-9-----11-12-----14-|-15--------------------|---------|
E|-|---------------------|--------------------|-----------------------|---------|
 an electric guitar kicks in

e|-|---------------------|------------------------------------------------------|
B|-|-19----21-22\10------|------------------------------------------------------|
G|-|---------------------|------------------------------------------------------|
D|-|-16----18-19\7-------|------------------------------------------------------|
A|-|---------------------|------------------------------------------------------|
E|-|---------------------|------------------------------------------------------|
                 end of riff 1

e|-|-5-----------------------|-------------------------------------|------------|
B|-|-5-----------------------|-4-----------------------------------|------------|
G|-|-5-----------------------|-5-----------------------------------|------------|
D|-|-7-----------------------|-6-----------------------------------|------------|
A|-|-7-----------------------|-6-----------------------------------|------------|
E|-|-5-----------------------|-4-----------------------------------|------------|
    can't get the stink off    he's been hanging 'round for days

e|-|---------6------------8--|---------------------|----------------------------|
B|-|-8---9------10---11------|---------------------|----------------------------|
G|-|-8----------10-----------|---------------------|-5--------------------------|
D|-|-8----------10-----------|-7-------------------|-6--------------------------|
A|-|-6----------8------------|-7-------------------|-6--------------------------|
E|-|-------------------------|-5-------------------|-4--------------------------|
                              comes like a comet   suckered you but not your

e|----|---------6-------------|--------------------------|----------------------|
B|----|-8---9---------------6-|--------------------------|----------------------|
G|----|-8-----------7---8-----|------5--7---7b9-------7--|------5----7---7b8----|
D|----|-8-----------8---------|----7---------------5-----|---6------------------|
A|----|-6-----------8---------|--------------------------|----------------------|
E|----|-------------6---------|--------------------------|----------------------|
 friends                       one day he'll get to you  and teach you how

e|---------|----------------|-------------------------|------------------0---0--|
B|---------|----------------|-------------------------|-------------------------|
G|----5----|-4--------5-----|-8b9---------------------|--9---9-------------3----|
D|-6-------|---5--------4---|-------------------------|--10--10-------4---------|
A|---------|-----5--------4-|-------------------------|--10--10-------4---------|
E|---------|----------------|-------------------------|--8---8--------2---------|
 to be a   ho-------ly      cow   you do it to your---------------------------|-self    you do    and

e|-------------------------------0---------------|--------------------0---0----|
B|------------------------------------1----------|-----------------------------|
G|-----------------------------------------------|-9---9----------------3------|
D|-3------3----3------------3--------------------|-10--10----------4-----------|
A|-3------3----3------------3--------------------|-10--10----------4-----------|
E|-1------1----1------------1--------------------|-8---8-----------2-----------|
 that's what really hurts is you do it to your---self       you do

e|----------------------0----------------|---------------|-----------------|----|
B|----------------------------1----------|---------------|-----------------|----|
G|---------------------------------------|--5---7-8---10-|-11---13-14---16-|----|
D|-3---3-----3---------------------------|---------------|-----------------|----|
A|-3---3-----3---------------------------|--3---5-6---8--|-9----11-12---14-|----|
E|-1---1-----1---------------------------|---------------|-----------------|----|
 you and no one else you do it to your---self                      you do it

e|-------------------|---------------|------------------------------------------|
B|-------15-16----18-|-19---21-22\10-|------------------------------------------|
G|-17----------------|---------------|------------------------------------------|
D|-------12-13----15-|-16---18-19\7--|------------------------------------------|
A|-15----------------|---------------|------------------------------------------|
E|-------------------|---------------|------------------------------------------|
 to yourself                         it's the same thing for the rest of the

e|------------------------|-----------------------------------------|-----------|
B|------------------------|-55555555--77-8888888888888-101010101010-|-----------|
G|------------------------|-----------------------------------------|-----------|
D|------------------------|-----------------------------------------|-----------|
A|------------------------|-----------------------------------------|-----------|
E|------------------------|-----------------------------------------|-----------|
 song until the bridge. lots of distortion

e|-|---------------------------|----------------------------|-------------------|
B|-|--11----11-----12----12----|------12-----12--8-----6----|-------------------|
G|-|--13b15-13b15--14b16-14b16-|-14b16--14b16----10b12-8b10-|-------------------|
D|-|---------------------------|----------------------------|-------------------|
A|-|---------------------------|----------------------------|-------------------|
E|-|---------------------------|----------------------------|-------------------|
    1     2      3     4       1      2        3     4  those number=beats

e|-|---------------------|------------------------------------|-----------------|
B|-|----5----5----5----5-|--17---17-17-15-----13-13---13--x-x-|-----------------|
G|-|-7b9--7b9--7b9--7b9--|------------------------------------|-----------------|
D|-|---------------------|--14---14-14-12-----10-10---10--x-x-|-----------------|
A|-|---------------------|------------------------------------|-----------------|
E|-|---------------------|------------------------------------|-----------------|
   1    2    3    4    :) 1    2         3          4

e|-|------------------------------------|--------------------------------------|
B|-|-16--16-16-15-----13-13---13--11/13-|-11-11-11--x-x-13/15--13-13---13-x-x--|
G|-|------------------------------------|-----------x-x------------------------|
D|-|-13--13-13-12-----10-10---10--8/-10-|-8--8--8---x-x-10/12--10-10---10-x-x--|
A|-|------------------------------------|--------------------------------------|
E|-|------------------------------------|--------------------------------------|
   1   2         3          4        :) 1         2          3       4

e|------------------------------------------------------------------------------|
B|------------------------------------------------------------------------------|
G|------------------------------------------------------------------------------|
D|------------------------------------------------------------------------------|
A|------------------------------------------------------------------------------|
E|------------------------------------------------------------------------------|
 after that,play again the parts between the smileys                 and

e|-|------------------|---------------------------------------------------------|
B|-|------------------|---------------------------------------------------------|
G|-|-4-4-4-4--3-3-3-3-|-2-------------------------------------------------------|
D|-|-5-5-5-5--4-4-4-4-|-3-------------------------------------------------------|
A|-|-5-5-5-5--4-4-4-4-|-3-------------------------------------------------------|
E|-|-3-3-3-3--2-2-2-2-|-1-------------------------------------------------------|
                                 then scrape the pick down the strings

e|------------------------------------------------------------------------------|
B|------------------------------------------------------------------------------|
G|------------------------------------------------------------------------------|
D|------------------------------------------------------------------------------|
A|------------------------------------------------------------------------------|
E|------------------------------------------------------------------------------|
 here you play the same chords as the " you do it to yourself" part.

e|-|-------------------16-17-------------------16-17-20/17----------------------|
B|-|----------16-18-19----------------16-18-19----------------------------------|
G|-|-16-17-19----------------16-17-19-------------------------------------------|
D|-|----------------------------------------------------------------------------|
A|-|----------------------------------------------------------------------------|
E|-|----------------------------------------------------------------------------|
 Then, there's the part where he plays with a pitch shifter. it ends with

e|-|----------------|-----------------------|----------------------------------|
B|-|-x--4--x----4---|---------------8-8-8-8-|----------------------------------|
G|-|-x--3--x----3---|--8-8-88888888-8-8-8-8-|-8p5------5-8p5------5-8p5--------|
D|-|-x--2--x----2---|-----------------------|-----8b10-------8b10-------8b10---|
A|-|-x--3--x----3---|-----------------------|----------------------------------|
E|-|----------------|-----------------------|----------------------------------|
 this chord     and      this 2 times   and

e|-|--------------10p8--------------------|------------------------------------|
B|-|------------8------11-10b11p8---------|------------------------------------|
G|-|-5-8p5------------------------10-8----|-8p5------5-8p5-------5-8p5---------|
D|-|-------8b10------------------------10-|-----8b10-------8b10--------8b10----|
A|-|--------------------------------------|------------------------------------|
E|-|--------------------------------------|------------------------------------|

e|-|------------------------------------------|--------------------------------|
B|-|------------8-----8--8--8--8--8--8--8--8--|--------------------------------|
G|-|-5-8p5------10b11-11-11-11-11-11-11-11-11-|--8p5------8p5------5-8p5-------|
D|-|-------8b10-------------------------------|------8b10-----8b10-------8b10--|
A|-|------------------------------------------|--------------------------------|
E|-|------------------------------------------|--------------------------------|

e|-|---------------10--------------------|------------------------------|-------|
B|-|------------------11-10b11p8---------|------------------------------|-------|
G|-|-8-8p5-----------------------10-8----|-8p5------8p5------5-8p5------|-------|
D|-|-------8-10-10--------------------10-|-----8b10-----8b10-------8b10-|-10/0--|
A|-|---------10-10-----------------------|------------------------------|-------|
E|-|-------------------------------------|------------------------------|-------|



************************************

| x  Dead note
| p  Pull-off
| b  Bend
| /  Slide up
| \  Slide down

************************************
Suggest correction
comments
print report bad tab
15 comments total. Showing first comments.
+3 reply
Tom 22 Jun 19, 2004 12:00 AM

Pretty cool. This must have taken u ages.

0 reply
uracompletetool 112 Nov 13, 2005 01:26 PM

hmm...not great

0 reply
WinslowBob 10 Dec 24, 2005 06:33 PM

All the electric guitar parts like in the intro (the repeating riff up the neck) he plays it with tremelo really fast

guest
You may want to rate the tab now too:
select rating
Wanna post a correction for this tab? Suggest correction