Oops, an error
Loading. Please wait.

Just Bass Tab

version 3
version 3
29,876 views 75 this week
7 commentsread comments
1 2 3 4 5
x 12
add to favorites
launch autoscroll
font size
0
reset
guitar tuner
×
Best way to learn
"Just"
Autoscroll
slow
fast
+/-
esc
set tempo
stop
JUST - RADIOHEAD


From the album: The Bends
Tab BY:         Paul Simpson (paul_the_bass_guy@hotmail.com)

Hello, firstly I would just like to say congratulations to the person
who previously tabbed this song because everything was incorrect
except the song structure.

Secondly I would like to say that my "The Bends" CD is out of tune so
I have to tune my bass up about 1/4 of a semitone. This may be true with
yours, so just bear that in mind (in case it sounds a bit off).

The majority of this song is in C minor.
Alrighty, here we go:

[Intro]
G-----------------------------------------|
D---------------------------------3-------|
A--3--3-3-3--5--6--6-6-6----5-3-5---------|
E---------------------------------------5-|
   1  + a 2  +  3  + a 4    1 + 2 + 3   4

G-----------------------------------------|
D-----------------------------------------|
A--3--3-3-3--5--6--6-6-6----5-3-----------|
E-------------------------------3-1-----1-|
   1  + a 2  +  3  + a 4    1 + 2 + 3   4

[Verse]

G--------------------------------------------------------|
D--------------------------------------------------------|
A-------------------------------------------------10-12\-|
E-5----5----5-5-5---4----4----4-4-4----/11-0-11-13-------|
  1    2    3 + 4   1    2    3 + 4     1  +  2 +3 +  4


G--------------------------------------------------------|
D--------------------------------------------------------|
A-------------------------------------6-8-6--------------|
E-5----5----5-5-5---4----4----4-4-4----------6--8-10\----|
  1    2    3 + 4   1    2    3 + 4   1 + 2  +3 +  4


[Bridge]

G-----------------------------------------------------|
D-----------------------------------------------------|
A----------------------------------------3------------|
E-5------5-7-8--7--5-------------4---4-6-----6---4----|
  1      2 t l3 +  4             1   2 t l3  +   4
           r e
           p t


G----------------------------|
D-----0-------4--------------|
A-10--------------4----------|
E--------3-----------2--0--1-|
  1   +  2    3   +  4  +  1

[Chorus]
                  (play this twice)
G---------------|.-------------------------------------------------.|
D---------------|.-------------------------------------------------.|
A---------------|-3--3-3-3--3-----------------------------------0h1-|
E-rest rest rest|-------------2--2-2-2--2--1--1-1-1---1-0-1--1h2----|
   2   3     4    1  + a 2  + 3  + a 4  +  1  + a 2   3 e +  4 e+ a

Then play intro riff again

Then play verse again

Then play Bridge again

Then play chorus again

Then play intro riff again (but last F is played an octave higher
at A string Fret 8).

Then play this:

[Interlude]
G--------------------------------------------------|
D--------------------------------------------------|
A-----7--7-7-7---5--5-5-5---4--4-4-4--/--10---12\--|
E--------------------------------------------------|
      1  + a 2   3  + a 4   1  + a 2      3    4

G--------------------------------------------------------------|
D--------------------------------------------------------------|
A-----7--7-7-7---5--5-5-5---4--4-4-4--/--10-10-10-10-10-10-10\-|
E--------------------------------------------------------------|
      1  + a 2   3  + a 4   1  + a 2      3  e  +  a  4  e  +

G----------------------------------------------------------|
D----------------------------------------------------------|
A-------------------------------------6-8-6----------------|
E-5----5----5-5-5---4----4----4-4-4----------6--8-10\------|
  1    2    3 + 4   1    2    3 + 4   1 + 2  +3 +  4

G-------------------------------------------------------|
D-------------------------------------------------------|
A-------------------------------------------------------|
E-5----5----5-5-5---4----4----4-4-4---3-3-3-3-2-2-2-2-1-|
  1    2    3 + 4   1    2    3 + 4   1 + 2 + 3 + 4 + 1

Then play chorus twice
Then play Intro riff 2 times

Then this:

ENDING:

G----------------------------------------------------|
D----------------------------------------------------|
A---3--3-3-3-1-1-1-1-1-1-1--0-0-0--1/--3h6--3h6--3h6-|
E----------------------------------------------------|
    1  2 + 3 e + a 4 e + a  1 + 2  +   3 e  + a4 e +

G----------------------------------------------------|
D--------------------------------------5-3-----5-3---|
A--1h3--3-3-3-1-1-1-1-1-1-1--0-0-0--1/-----6-3-----6-|
E----------------------------------------------------|
   1 e  2 + 3 e + a 4 e + a  1 + 2  +  3 e + a 4 e +

G-----------------------------------------------------|
D-----------------------------------------------------|
A--1h3--3-3-3-1-1-1-1-1-1-1--0-0-0--1/--3h6--3h6--3h6-|
E-----------------------------------------------------|
   1 e  2 + 3 e + a 4 e + a  1 + 2  +   3 e  + a4 e +

G---------------------------------------------------|
D---------------------------------------------------|
A---3--3-3-3-1-1-1-1-1-1-1-/-8\------3/------8\-----|
E---------------------------------------------------|
    1  2 + 3 e + a 4 e + a   1 + 2  +   3 e  + a4 e +

G-----------------------------------------------------|
D-----------------------------------------------------|
A--1h3--3-3-3-1-1-1-1-1-1-1--0-0-0--1/--3h6--3h6--3h6-|
E-----------------------------------------------------|
   1 e  2 + 3 e + a 4 e + a  1 + 2  +   3 e  + a4 e +

G---------------------------------------------------|
D---------------------------------------------------|
A--1h3--3-3-3-1-1-1-1-1-1-1--0-0-0--/--8\-----------|
E---------------------------------------------------|
   1 e  2 + 3 e + a 4 e + a  1 + 2  +   3 e  + a4 e +

Now just repeat the 2 lines above over a couple more times until
the end of the song.

Yes, I think this is a tremendously vivacious, immensely gratifying
and uncompromisingly immaculate song so it deserves an accurate
tabulation. This tab is correct to my best knowledge.

Alrighty then, have fun with this song.
If you want to e-mail me or anything please do:

paul_the_bass_guy@hotmail.com

Ok, bye :)



************************************

| \  Slide down
| /  Slide up
| h  Hammer-on

************************************
Suggest correction
comments
print report bad tab
7 comments total. Showing first comments.
0 reply
daniel mac 60 Sep 28, 2004 08:00 PM

I doubt the cd is out of tune

-1 reply
I wanna play~ 30 Sep 08, 2006 01:00 PM

I saw in a GuitarWorld magazine today that all guitars were supposed to be tuned up slightly...

0 reply
Debaser101 123 Mar 13, 2007 12:21 PM

I dunno, but this tab works really well, I'd say completely correct. Nice one.

guest
You may want to rate the tab now too:
select rating
Wanna post a correction for this tab? Suggest correction