Oops, an error
Loading. Please wait.

Just Tab

version 3
version 3

Whole song

Interactive

245,787 views 396 this week
18 commentsread comments
1 2 3 4 5
x 69
add to favorites
launch autoscroll
font size
0
reset
how to read this tab
guitar tuner
×
Best way to learn
"Just"
Autoscroll
slow
fast
+/-
esc
set tempo
stop
"Just"

                          Words and Music by:
Colin Greenwood, Jonathan Greenwood, Edward O'Brien, Philip Selway & Thomas Yorke

Gtr. 1: Thom (acoustic)
Gtr. 2: Jonny (Electric)
Gtr. 3: Ed (Electric)
Gtr. 4: Jonny (Electric Overdub)

Tune all guitars up 1/4 step


   Gtr. 1 (Acoustic)
e|----------------------------|-------------------------------|
B|--5----5--5-5---8-8--8----7-|--7--7--7--7-7---10-10--10-----|
G|--5----5--5-5-x-8-8--8--x-7-|--7--7--7--7-7-x-10-10--10-----|
D|--5----5--5-5-x-8-8--8--x-7-|--7--7--7--7-7-x-10-10--10--0--|
A|--3----3--3-3-x-6-6--6--x-5-|--5--5--5--5-5-x-8--8---8---0--|
E|----------------------------|-------------------------------|

   Gtr. 3 (Elec. w/Heavy Dist.)
e|----------------------------|-------------------------------|
B|----------------------------|-----------------------x-------|
G|----------------------------|-------------------x---x-x---x-|
D|----------------------------|-----------------x-x-x-x-x-x-x-|
A|----------------------------|-----------------x-x-x-x-x-x-x-|
E|----------------------------|-----------------x---x---------|

  Gtr. 1
e|----------------------------|-------------------------------|
B|--5----5--5-5---8-8--8------|--7--7--7--7-7---10-10--10-----|
G|--5----5--5-5-x-8-8--8--x-x-|--7--7--7--7-7-x-10-10--10-----|
D|--5----5--5-5-x-8-8--8--x-x-|--7--7--7--7-7-x-10-10--10--0--|
A|--3----3--3-3-x-6-6--6--x-x-|--5--5--5--5-5-x-8--8---8---0--|
E|----------------------------|-------------------------------|

 Gtr. 2 (Jonny) w/ heavy dist.
   T.P.-------------------------------------------------------|
e|----------------------------|--------------------------7----|
B|----------------------------|--------------------------x----|
G|--5---------7---8-------10--|--11--------13---14-------4----|
D|--x---------x---x-------x---|--x---------x----x-------------|
A|--3---------5---6-------8---|--9---------11---12------------|
E|----------------------------|-------------------------------|

  Gtr. 3 (Ed)
e|----------------------------|-------------------------------|
B|----------------------------|-------------------------------|
G|--5----5--------8-8--8--8-7-|--7----7--------10-10--10--10/-|
D|--x----x--------x-x--x--x-x-|--x----x--------x--x---x---x---|
A|--3----3--------6-6--6--6-5-|--5----5--------8--8---8---8/--|
E|----------------------------|-------------------------------|

  Gtr. 1
e|----------------------------|-------------------------------|
B|--5----5--5-5---8-8--8----7-|--7--7--7--7-7---10-10--10-----|
G|--5----5--5-5-x-8-8--8--x-7-|--7--7--7--7-7-x-10-10--10-----|
D|--5----5--5-5-x-8-8--8--x-7-|--7--7--7--7-7-x-10-10--10--0--|
A|--3----3--3-3-x-6-6--6--x-5-|--5--5--5--5-5-x-8--8---8---0--|
E|----------------------------|-------------------------------|

 Gtr. 2
  T.P.---------------------------------------------------------|
e|--8--------10--11-------13--|--14--------16---17-------17/----|
B|--x--------x---x--------x---|--x---------x----x--------x------|
G|--5--------7---8--------10--|--11--------13---14-------14/----|
D|----------------------------|---------------------------------|
A|----------------------------|---------------------------------|
E|----------------------------|---------------------------------|

  Gtr. 3
e|----------------------------|-------------------------------|
B|----------------------------|-------------------------------|
G|--5----5--------8-8--8--8-7-|--7----7--------10-10--10--10/-|
D|--x----x--------x-x--x--x-x-|--x----x--------x--x---x---x---|
A|--3----3--------6-6--6--6-5-|--5----5--------8--8---8---8/--|
E|----------------------------|-------------------------------|

   Can't get the stink off     He's been hangin' round for days
  Gtr. 1
e|-------------------------|------------------------------|
B|-------------------------|------------------------------|
G|-------------------------|--5-----5----5----5---5-------|
D|--7---------------7------|--6-----6----6----6---6---x-x-|
A|--7---------------7--x-x-|--6-----6----6----6---6---x-x-|
E|--5---------------5--x-x-|--4-----4----4----4---4---x-x-|

                                   Comes like a Comet
  Gtr. 1
e|------------------------------|----------------------------|
B|-----------------------1------|----------------------------|
G|--8--8--x--------------2------|----------------------------|
D|--8--8--x---3-------3--3--x-x-|--7----7--7-7-7-7-7--7--x-x-|
A|--6--6--x---3-------3--3--x-x-|--7----7--7-7-7-7-7--7--x-x-|
E|------------1-------1--1--x-x-|--5----5--5-5-5-5-5--5--x-x-|

  Gtr. 2 (clean)
e|------------------------------|----------------------------|
B|------------------------------|----------------------------|
G|-----12-13-15----14--15--17~--|----------------------------|
D|----13----------15------------|----------------------------|
A|---x-----------x--------------|----------------------------|
E|--11----------13--------------|----------------------------|

    Suckered you but not your friends
  Gtr. 1
e|---------------------------|-----------6------------|
B|---------------------------|-----------6-------6/---|
G|--5--5--5--5-5---5--5------|--8--8--x--7-------7/---|
D|--6--6--6--6-6---6--6--x-x-|--8--8--x--8----8--8/---|
A|--6--6--6--6-6---6--6--x-x-|--6--6--x--8----8--8/---|
E|--4-----4--4-4---4--4--x-x-|-----------6----6--6/---|

  Gtr. 2
e|---------------------------|------------------------|
B|---------------------------|------------------------|
G|---------------------------|-----12-13-15----7-8-10-|
D|---------------------------|----13----------x-------|
A|---------------------------|---x-----------x--------|
E|---------------------------|-11-----------6---------|

     One day he'll get to you   and teach you how to be a
  Gtr. 1
e|---------------------------|--------------------------|
B|---------------------------|--------------------------|
G|---------------------------|--5-----5---5---5--5------|
D|--7----7---7-7-7-7--7--x-x-|--6-----6---6---6--6--x-x-|
A|--7----7---7-7-7-7--7--x-x-|--6--6--6---6---6--6--x-x-|
E|--5----5---5-5-5-5--5--x-x-|--4--4--4---4---4--4--x-x-|

  Gtr. 2       1                          .5
e|---------------------------|--------------------------|
B|---------------------------|--------------------------|
G|--------5-7--7b-------5----|-------5-7--7b-------5----|
D|------5------------7-------|-----6------------6-------|
A|---------------------------|--------------------------|
E|---------------------------|--------------------------|

    Holy                       Cow   You do it to yourself
  Gtr. 1
e|---------------------------|----------------------------|
B|---------------------------|----------------------------|
G|--------4------3--3--3-----|--2-------------------------|
D|--5--5--5------4--4--4-----|--3-------------------------|
A|--5--5--5--x---4--4--4--x--|--3-------------------------|
E|--3--3--3--x-0-2--2--2--x--|--1-------------------------|

  Gtr. 2                        .5
e|---------------------------|----------------------------|
B|---------------------------|----------------------------|
G|--4------------5-----------|--8b------------------------|
D|-----5------------4--------|----------------------------|
A|--------5------------4-----|----------------------------|
E|---------------------------|----------------------------|

           You do and that's what really hurts 'cause you do it to yourself
  Gtr. 1
e|------------------------------|-------------------------------|
B|--1----1----------------------|-------------------------------|
G|--0----0--x-----3-3-3-3-3-----|--2--2--2--2-2---2-2-2-2-2-----|
D|--2----2--x-0-0-4-4-4-4-4-x-x-|--3--3--3--3-3-x-3-3-3-3-3-x-x-|
A|--3----3--x-0-0-4-4-4-4-4-x-x-|--3--3--3--3-3-x-3-3-3-3-3-x-x-|
E|----------------2-2-2-2-2-x-x-|--1--1--1--1-1-x-1-1-1-1-1-x-x-|

  Gtr. 2 (w/heavy dist.)
e|---------------------0-----0--|-----------------------0-------|
B|------------------------------|---------------------------1---|
G|-------------------------3----|-------------------------------|
D|--10/-----------4-------------|--3----------------------------|
A|--10/-----------4-------------|--3----------------------------|
E|--8/------------2-------------|--1----------------------------|

  Gtr. 3 (w/heavy dist.)
e|------------------------------|-------------------------------|
B|------------------------------|-------------------------------|
G|------------------------------|-------------------------------|
D|--10/-----------4---4---4---4-|--3------3------------3--------|
A|--10/-----------4---4---4---4-|--3----------3-------------3/--|
E|--8/------------2---2---2---2-|--1----------------1-----------|

         Just you              You and no one else You do it to yourself
  Gtr. 1
e|------------------------------|-------------------------------|
B|--1----1----------------------|-------------------------------|
G|--0----0--x-----3-3-3-3-3-----|--2--2--2--2-2---2-2-2-2-2-----|
D|--2----2--x-0-0-4-4-4-4-4-x-x-|--3--3--3--3-3-x-3-3-3-3-3-x-x-|
A|--3----3--x-0-0-4-4-4-4-4-x-x-|--3--3--3--3-3-x-3-3-3-3-3-x-x-|
E|----------------2-2-2-2-2-x-x-|--1--1--1--1-1-x-1-1-1-1-1-x-x-|

  Gtr. 2
e|---------------------0------0-|-----------------------0-------|
B|------------------------------|---------------------------1---|
G|-------------------------3----|-------------------------------|
D|--10/-----------4-------------|--3----------------------------|
A|--10/-----------4-------------|--3----------------------------|
E|--8/------------2-------------|--1----------------------------|

  Gtr. 3
e|------------------------------|-------------------------------|
B|------------------------------|-------------------------------|
G|------------------------------|-------------------------------|
D|--10/-----------4---4---4---4-|--3--3--3--3---3-3-3-3-3-3--3--|
A|--10/-----------4---4---4---4-|--3--3--3--3---3-3-3-3-3-3--3--|
E|--8/------------2---2---2---2-|--1--1--1--1---1-1-1-1-1-1--1--|

                                                You do it to Yourself
  Gtr. 1
e|--------------------------------|-----------------------------------|
B|--1--1-1-1-1-1-1-8--8-8-8-8-8-8-|--7--7--7-7-10---10-10-10-10-10----|
G|--0--0-0-0-0-0-0-8--8-8-8-8-8-8-|--7--7--7-7-10---10-10-10-10-10----|
D|--2--2-2-2-2-2-2-8--8-8-8-8-8-8-|--7--7--7-7-10---10-10-10-10-10----|
A|--3--3-3-3-3-3-3-6--6-6-6-6-6-6-|--5--5--5-5-8----8--8--8--8--8--00-|
E|--------------------------------|-----------------------------------|

 Gtr. 2
 T.P.------------------------------------------------------------------|
e|--------------------------------|-------------------------------7-----|
B|--------------------------------|-------------------------------x-----|
G|--5-----------7---8---------10--|--11--------13---14------------4-----|
D|--x-----------x---x---------x---|--x---------x----x-------------------|
A|--3-----------5---6---------8---|--9---------11---12------------------|
E|--------------------------------|-------------------------------------|

  Gtr. 3
e|--------------------------------|-----------------------------------|
B|--------------------------------|-----------------------------------|
G|--5----5----------8--8---8--8-7-|--7----7---------10--10---10---10/-|
D|--x----x----------x--x---x--x-x-|--x----x---------x---x----x----x---|
A|--3----3----------6--6---6--6-5-|--5----5---------8---8----8----8/--|
E|--------------------------------|-----------------------------------|

  Gtr. 1
e|--------------------------------|----------------------------------|
B|--1--1-1-1-1-1-1-8--8-8-8-8-8-8-|--7--7--7-7-10---10-10--10-10-----|
G|--0--0-0-0-0-0-0-8--8-8-8-8-8-8-|--7--7--7-7-10---10-10--10-10-----|
D|--2--2-2-2-2-2-2-8--8-8-8-8-8-8-|--7--7--7-7-10---10-10--10-10-x-x-|
A|--3--3-3-3-3-3-3-6--6-6-6-6-6-6-|--5--5--5-5-8----8--8---8--8--x-x-|
E|--------------------------------|------------------------------x-x-|

 Gtr. 2
 T.P.----------------------------------------------------------------|
e|--8----------10--11---------13--|--14--------16---17---------17/----|
B|--x----------x---x----------x---|--x---------x----x----------x------|
G|--5----------7---8----------10--|--11--------13---14---------14/----|
D|--------------------------------|-----------------------------------|
A|--------------------------------|-----------------------------------|
E|--------------------------------|-----------------------------------|

  Gtr. 3
e|--------------------------------|---------------------------------|
B|--------------------------------|---------------------------------|
G|--5----5----------8--8---8--8-7-|--7----7---------10--10--10--10/-|
D|--x----x----------x--x---x--x-x-|--x----x---------x---x---x---x---|
A|--3----3----------6--6---6--6-5-|--5----5---------8---8---8---8/--|
E|--------------------------------|---------------------------------|

     Don't get my sympathy     hangin' out the fifteenth
  Gtr. 1
e|---------------------------|--------------------------|
B|---------------------------|--------------------------|
G|---------------------------|--5-----5---5---5--5------|
D|--7----7---7-7-7-7--7--x-x-|--6-----6---6---6--6--x-x-|
A|--7----7---7-7-7-7--7--x-x-|--6--6--6---6---6--6--x-x-|
E|--5----5---5-5-5-5--5--x-x-|--4--4--4---4---4--4--x-x-|

  Gtr. 3 (w/clean tone)
    ^                           ^
e|--5~-----------------------|--4~----------------------|
B|--5~-----------------------|--4~----------------------|
G|--5~-----------------------|--5~----------------------|
D|--7~-----------------------|--6~----------------------|
A|--7~-----------------------|--6~----------------------|
E|--5~-----------------------|--4~----------------------|

    floor                        You've changed the locks three times
  Gtr. 1
e|----------------------------|----------------------------|
B|---------------------1------|----------------------------|
G|--8--8--x------------2------|----------------------------|
D|--8--8--x----3----3--3--x-x-|--7----7--7-7-7-7-7--7--x-x-|
A|--6--6--x----3----3--3--x-x-|--7----7--7-7-7-7-7--7--x-x-|
E|-------------1----1--1--x-x-|--5----5--5-5-5-5-5--5--x-x-|

  Gtr. 2 (w/ clean tone)
e|----------------------------|----------------------------|
B|----------------------------|----------------------------|
G|-----12--13----14--15--17~--|----------------------------|
D|----13--------15------------|----------------------------|
A|---x---------x--------------|----------------------------|
E|--11--------13--------------|----------------------------|

  Gtr. 3                         ^
e|----------------------------|--5~------------------------|
B|----------------------------|--5~------------------------|
G|----------------------------|--5~------------------------|
D|----------------------------|--7~------------------------|
A|----------------------------|--7~------------------------|
E|----------------------------|--5~------------------------|

       I still come reeling throught the door
  Gtr. 1
e|---------------------------|-----------6------------|
B|---------------------------|-----------6-------6/---|
G|--5-----5--5-5---5--5------|--8--8--x--7-------7/---|
D|--6-----6--6-6---6--6--x-x-|--8--8--x--8----8--8/---|
A|--6--6--6--6-6---6--6--x-x-|--6--6--x--8----8--8/---|
E|--4-----4--4-4---4--4--x-x-|-----------6----6--6/---|

  Gtr. 2
e|---------------------------|------------------------|
B|---------------------------|------------------------|
G|---------------------------|-----12-13-15----7-8-10-|
D|---------------------------|----13----------x-------|
A|---------------------------|---x-----------x--------|
E|---------------------------|-11-----------6---------|

  Gtr. 3
    ^
e|--4~-----------------------|------------------------|
B|--4~-----------------------|------------------------|
G|--5~-----------------------|------------------------|
D|--6~-----------------------|------------------------|
A|--6~-----------------------|------------------------|
E|--4~-----------------------|------------------------|

       One day I'll get to you and teach you how to get to
  Gtr. 1
e|---------------------------|--------------------------|
B|---------------------------|--------------------------|
G|---------------------------|--5-----5---5---5--5------|
D|--7----7---7-7-7-7--7--x-x-|--6-----6---6---6--6--x-x-|
A|--7----7---7-7-7-7--7--x-x-|--6--6--6---6---6--6--x-x-|
E|--5----5---5-5-5-5--5--x-x-|--4--4--4---4---4--4--x-x-|

  Gtr. 2        1                         .5
e|---------------------------|--------------------------|
B|---------------------------|--------------------------|
G|--------5-7--7br------5----|-------5-7--7br------5----|
D|------5------------7-------|-----6------------6-------|
A|---------------------------|--------------------------|
E|---------------------------|--------------------------|

  Gtr. 3
e|---------------------------|--------------------------|
B|----------5~---------------|--------------------------|
G|------5--------------------|---------8~---------------|
D|---------------------------|--------------------------|
A|---------------------------|--6-----------------------|
E|--5------------------------|--------------------------|

    Purest                      Hell  You do it to yourself
  Gtr. 1
e|---------------------------|-----------------------------|
B|---------------------------|-----------------------------|
G|--------4------3--3--3-----|--2--------------------------|
D|--5--5--5------4--4--4-----|--3--------------------------|
A|--5--5--5--x---4--4--4--x--|--3--------------------------|
E|--3--3--3--x-0-2--2--2--x--|--1--------------------------|

  Gtr. 2                        .5
e|---------------------------|-----------------------------|
B|---------------------------|-----------------------------|
G|--4------------5-----------|--8b-------------------------|
D|-----5------------4--------|-----------------------------|
A|--------5------------4-----|-----------------------------|
E|---------------------------|-----------------------------|

  Gtr. 3
e|---------------------------|-----------------------------|
B|---------------------------|-----------------------------|
G|--4-----4~-----3-----3~----|--2--------------------------|
D|-----5------------4--------|--3--------------------------|
A|---------------------------|-----------------------------|
E|---------------------------|-----------------------------|

           You do  and that's what really hurts 'cause you do it to yourself
  Gtr. 1
e|------------------------------|-------------------------------|
B|--1----1----------------------|-------------------------------|
G|--0----0--x-----3-3-3-3-3-----|--2--2--2--2-2---2-2-2-2-2-----|
D|--2----2--x-0-0-4-4-4-4-4-x-x-|--3--3--3--3-3-x-3-3-3-3-3-x-x-|
A|--3----3--x-0-0-4-4-4-4-4-x-x-|--3--3--3--3-3-x-3-3-3-3-3-x-x-|
E|----------------2-2-2-2-2-x-x-|--1--1--1--1-1-x-1-1-1-1-1-x-x-|

  Gtr. 2 (w/ heavy dist.)
e|---------------------0-----0--|-----------------------0-------|
B|------------------------------|---------------------------1---|
G|-------------------------3----|-------------------------------|
D|--10/-----------4-------------|--3----------------------------|
A|--10/-----------4-------------|--3----------------------------|
E|--8/------------2-------------|--1----------------------------|

  Gtr. 3 (w/ heavy dist.)
e|------------------------------|-------------------------------|
B|------------------------------|-------------------------------|
G|------------------------------|-------------------------------|
D|--10/-----------4---4---4---4-|--3------3------------3--------|
A|--10/-----------4---4---4---4-|--3----------3-------------3/--|
E|--8/------------2---2---2---2-|--1----------------1-----------|

         just you            you and no one else  you do it to yourself
  Gtr. 1
e|------------------------------|-------------------------------|
B|--1----1----------------------|-------------------------------|
G|--0----0--x-----3-3-3-3-3-----|--2--2--2--2-2---2-2-2-2-2-----|
D|--2----2--x-0-0-4-4-4-4-4-x-x-|--3--3--3--3-3-x-3-3-3-3-3-x-x-|
A|--3----3--x-0-0-4-4-4-4-4-x-x-|--3--3--3--3-3-x-3-3-3-3-3-x-x-|
E|----------------2-2-2-2-2-x-x-|--1--1--1--1-1-x-1-1-1-1-1-x-x-|

  Gtr. 2
e|---------------------0------0-|-----------------------0-------|
B|------------------------------|---------------------------1---|
G|-------------------------3----|-------------------------------|
D|--10/-----------4-------------|--3----------------------------|
A|--10/-----------4-------------|--3----------------------------|
E|--8/------------2-------------|--1----------------------------|

  Gtr. 3
e|------------------------------|-------------------------------|
B|------------------------------|-------------------------------|
G|------------------------------|-------------------------------|
D|--10/-----------4---4---4---4-|--3--3--3--3---3-3-3-3-3-3--3--|
A|--10/-----------4---4---4---4-|--3--3--3--3---3-3-3-3-3-3--3--|
E|--8/------------2---2---2---2-|--1--1--1--1---1-1-1-1-1-1--1--|

                                                  You do it to yourself
  Gtr. 1
e|--------------------------------|------------------------------------|
B|--1--1-1-1-1-1-1-8--8-8-8-8-8-8-|--7--7--7-7-10---10-10-10-10-10-----|
G|--0--0-0-0-0-0-0-8--8-8-8-8-8-8-|--7--7--7-7-10---10-10-10-10-10-----|
D|--2--2-2-2-2-2-2-8--8-8-8-8-8-8-|--7--7--7-7-10---10-10-10-10-10-----|
A|--3--3-3-3-3-3-3-6--6-6-6-6-6-6-|--5--5--5-5-8----8--8--8--8--8--0-0-|
E|--------------------------------|------------------------------------|

 Gtr. 2
 T.P.------------------------------------------------------------------|
e|--------------------------------|-------------------------------7-----|
B|--------------------------------|-------------------------------x-----|
G|--5-----------7---8---------10--|--11--------13---14------------4-----|
D|--x-----------x---x---------x---|--x---------x----x-------------------|
A|--3-----------5---6---------8---|--9---------11---12------------------|
E|--------------------------------|-------------------------------------|

  Gtr. 3 (Ed)
e|--------------------------------|-----------------------------------|
B|--------------------------------|-----------------------------------|
G|--5----5----------8--8---8--8-7-|--7----7---------10--10---10---10/-|
D|--x----x----------x--x---x--x-x-|--x----x---------x---x----x----x---|
A|--3----3----------6--6---6--6-5-|--5----5---------8---8----8----8/--|
E|--------------------------------|-----------------------------------|

   Gtr. 1
e|--------------------------------|----------------------------------|
B|--1--1-1-1-1-1-1-8--8-8-8-8-8-8-|--7--7--7-7-10---10-10--10-10-----|
G|--0--0-0-0-0-0-0-8--8-8-8-8-8-8-|--7--7--7-7-10---10-10--10-10-----|
D|--2--2-2-2-2-2-2-8--8-8-8-8-8-8-|--7--7--7-7-10---10-10--10-10-x-x-|
A|--3--3-3-3-3-3-3-6--6-6-6-6-6-6-|--5--5--5-5-8----8--8---8--8--x-x-|
E|--------------------------------|------------------------------x-x-|

  Gtr. 2
 T.P.----------------------------------------------------------------|
e|--8----------10--11---------13--|--14--------16---17---------17/----|
B|--x----------x---x----------x---|--x---------x----x----------x------|
G|--5----------7---8----------10--|--11--------13---14---------14/----|
D|--------------------------------|-----------------------------------|
A|--------------------------------|-----------------------------------|
E|--------------------------------|-----------------------------------|

   Gtr. 3
e|--------------------------------|---------------------------------|
B|--------------------------------|---------------------------------|
G|--5----5----------8--8---8--8-7-|--7----7---------10--10--10--10/-|
D|--x----x----------x--x---x--x-x-|--x----x---------x---x---x---x---|
A|--3----3----------6--6---6--6-5-|--5----5---------8---8---8---8/--|
E|--------------------------------|---------------------------------|

[Guitar Solo] (1:55)
   Gtr. 1
e|--0--0-0-0-0--------------------|---------------------------------------|
B|--0--0-0-0-0--------------------|---------------------------------------|
G|--1--1-1-1-1--------------------|---------------------------------------|
D|--2--2-2-2-2-4-4-5--5-5-5-5-7-7-|--8--8-8-8-8-10--11-11-11-11-11-11-x-x-|
A|--2--2-2-2-2-x-x-x--x-x-x-x-x-x-|--x--x-x-x-x-x---x--x--x--x--x--x--x-x-|
E|--0--0-0-0-0-2-2-3--3-3-3-3-5-5-|--6--6-6-6-6-8---9--9--9--9--9--9--x-x-|

  Gtr. 2
 T.P.---------------------------+ *T.P.------------------------------------|
e|--0---------0---0----------0---|--0--0--0--0--0--0--0--0--0--0--0--0-----|
B|--5---------7---8----------10--|--11-11-11-11-11-11-11-11-11-11-11-11----|
G|-------------------------------|--13-13b13b13b13b13b13b13b13b13b13b13b---|
D|-------------------------------|-----------------------------------------|
A|-------------------------------|-----------------------------------------|
E|-------------------------------|-----------------------------------------|
                                  |-------------------------------------|
                                  |*Note: Tremolo pick while gradually  |
                                  | bending up one and a half steps     |
                                  |-------------------------------------|

  Gtr. 3
e|--------------------------------|---------------------------------------|
B|--------------------------------|---------------------------------------|
G|--9--9-9-9--9--9---7-7-7-7--7-6-|--6--6-6--6---12-----12-12--12--9---7--|
D|--x--x-x-x--x--x---x-x-x-x--x-x-|--x--x-x--x---x------x--x---x---x---x--|
A|--7--7-7-7--7--7---5-5-5-5--5-4-|--4--4-4--4---10-----10-10--10--7---5--|
E|--------------------------------|---------------------------------------|

  Gtr. 1
e|--------------------------------|
B|--------------------------------|
G|--------------------------------|
D|--2--2-2-2-2-4-4-5--5-5-5-5-7-7-|
A|--2--2-2-2-2-x-x-x--x-x-x-x-x-x-|
E|--0--0-0-0-0-2-2-3--3-3-3-3-5-5-|

  Gtr. 2
     1        1         1    1
e|-------12-----------------------|
B|-----------10--10/---8-----6----|
G|--14b------12b-------10b---8b---|
D|--------------------------------|
A|--------------------------------|
E|--------------------------------|

  Gtr. 3
e|--------------------------------|
B|--------------------------------|
G|--7//9-9-9-9--9--9-7-7-7-7--7-6-|
D|--x--x-x-x-x--x--x-x-x-x-x--x-x-|
A|--5//7-7-7-7--7--7-5-5-5-5--5-4-|
E|--------------------------------|

  Gtr. 1
e|-------------------------------------------|
B|-------------------------------------------|
G|-------------------------------------------|
D|--8--8-8-8-8-10-10-11-11-11-11-11-11-11-11-|
A|--x--x-x-x-x-x--x--x--x--x--x--x--x--x--x--|
E|--6--6-6-6-6-8--8--9--9--9--9--9--9--9--9--|

  Gtr. 2
    1  1   1   1   1   1   .75 .75 .75 .75
e|-------------------------------------------|
B|--5--5---5---5---5---5---5---5---5---5-----|
G|--7b-7pb-7pb-7pb-7pb-7pr-7pb-7pb-7pb-7b----|
D|-------------------------------------------|
A|-------------------------------------------|
E|-------------------------------------------|

  Gtr. 3
e|-------------------------------------------|
B|-------------------------------------------|
G|--6---6--6--6---12----12--12---12--12--12--|
D|--x---x--x--x---x-----x---x----x---x---x---|
A|--4---4--4--4---10----10--10---10--10--10--|
E|-------------------------------------------|

[Interlude] (2:06)
  Gtr. 1 (Acoustic)
e|----------------------------------|-----------------------------------|
B|----------------------------------|-----------------------------------|
G|----------------------------------|-----------------------------------|
D|--10----10--10-9--x-7-7-7-7-7-7---|--10--10--10--x-8-x-6-6-6-6-6-x-x--|
A|--x-----x---x--x--x-x-x-x-x-x-x---|--x---x---x---x-x-x-x-x-x-x-x-x-x--|
E|--8-----8---8--7--x-5-5-5-5-5-5-x-|--8---8---8---x-6-x-4-4-4-4-4-x-x--|

  Gtr. 2 (w/clean tone)
e|----------------------------------|-----------------------------------|
B|----------------------------------|-----------------------------------|
G|--21----21--21-19-x-17-17--17-x-x-|--20----20--20-19-x-17-17--17-15/17|
D|--x-----x---x--x--x-x--x---x--x-x-|--x-----x---x--x--x-x--x---x--x--x-|
A|--19----19--19-17-x-15-15--15-x-x-|--18----18--18-17-x-15-15--15-13/15|
E|----------------------------------|-----------------------------------|

  Gtr. 3 (w/clean tone)
e|----------------------------------|-----------------------------------|
B|----------------------------------|-----------------------------------|
G|--17----17--17-16-x-14-14--14-x-17|--17----17--x-15----13-13--13-12/13|
D|--x-----x---x--x--x-x--x---x--x-x-|--x-----x---x-x-----x--x---x--x--x-|
A|--15----15--15-14-x-12-12--12-x-15|--15----15--x-13----11-11--11-10/11|
E|----------------------------------|-----------------------------------|

  Gtr. 1
e|--------------------------------------|----------------------------------|
B|--8----8------------------------------|----------------------------------|
G|--8----8----x-x-7-----7-7--7---7------|----------------------------------|
D|--8----8----x-x-8-----8-8--8---8--x-x-|--10----10--10--9-x-7-7-7-7-7-7-x-|
A|--6----6----x-x-8-----8-8--8---8--x-x-|--x-----x---x---x-x-x-x-x-x-x-x-x-|
E|----------------6-----6-6--6---6--x-x-|--8-----8---8---7-x-5-5-5-5-5-5-x-|

  Gtr. 2
e|--------------------------------------|----------------------------------|
B|--------------------------------------|----------------------------------|
G|--15--15-15-x-x-17/19-17--17--17--x-x-|--21----21--21-19-x-17-17--17-x-x-|
D|--x---x--x--x-x-x--x--x---x---x---x-x-|--x-----x---x--x--x-x--x---x--x-x-|
A|--13--13-13-x-x-15/17-15--15--15--x-x-|--19----19--19-17-x-15-15--15-x-x-|
E|--------------------------------------|----------------------------------|

  Gtr. 3
e|--------------------------------------|----------------------------------|
B|--------------------------------------|----------------------------------|
G|--12--12-12-x-x-10/12/10------10--x---|--17----17--17-16-x-14-14--14-x-17|
D|--x---x--x--x-x-----------------------|--x-----x---x--x--x-x--x---x--x-x-|
A|--10--10-10-x-x-----------------------|--15----15--15-14-x-12-12--12-x-15|
E|--------------------------------------|----------------------------------|

  Gtr. 1
e|----------------------------------|--------------------------|
B|----------------------------------|--------------------------|
G|----------------------------------|--4--4--4--4--3--3--3--3--|
D|--10--10--10--x-8-x-6-6-6-6-6-x-x-|--5--5--5--5--4--4--4--4--|
A|--x---x---x---x-x-x-x-x-x-x-x-x-x-|--5--5--5--5--4--4--4--4--|
E|--8---8---8---x-6-x-4-4-4-4-4-x-x-|--3--3--3--3--2--2--2--2--|

  Gtr. 2
e|----------------------------------|--------------------------|
B|----------------------------------|--------------------------|
G|--20----20--20-19-x-17-17--17-----|--------------------------|
D|--x-----x---x--x--x-x--x---x------|--------------------------|
A|--18----18--18-17-x-15-15--15-----|--------------------------|
E|----------------------------------|--------------------------|

  Gtr. 3                            (w/heavy dist.)
e|----------------------------------|--------------------------|
B|----------------------------------|--------------------------|
G|--17----17--x-15----13-13--13-----|--------------------------|
D|--x-----x---x-x-----x--x---x------|--5--5--5--5--4--4--4--4--|
A|--15----15--x-13----11-11--11-----|--5--5--5--5--4--4--4--4--|
E|----------------------------------|--3--3--3--3--2--2--2--2--|

  Gtr. 1
e|---------------------------|
B|---------------------------|
G|--2------------------------|
D|--3------------------------|
A|--3------------------------|
E|--1------------------------|

  Gtr. 3
e|---------------------------|
B|---------------------------|
G|---------------------------|
D|--3------------------------|
A|--3------------------------|
E|--1------------------------|

  Gtr. 4         (pick scrape)
e|---------------------------|
B|---------------------------|
G|---------------------------|
D|---------------------------|
A|---------------------------|
E|---------------------x~~~~~|

(Gtr. 4 continues random pick scrapes)

  Gtr. 1
e|------------------------------|-------------------------------|
B|--1----1----------------------|-------------------------------|
G|--0----0--x-----3-3-3-3-3-----|--2--2--2--2-2---2-2-2-2-2-----|
D|--2----2--x-0-0-4-4-4-4-4-x-x-|--3--3--3--3-3-x-3-3-3-3-3-x-x-|
A|--3----3--x-0-0-4-4-4-4-4-x-x-|--3--3--3--3-3-x-3-3-3-3-3-x-x-|
E|----------------2-2-2-2-2-x-x-|--1--1--1--1-1-x-1-1-1-1-1-x-x-|

  Gtr. 2 (w/ heavy dist.)
e|---------------------0-----0--|-----------------------0-------|
B|------------------------------|---------------------------1---|
G|-------------------------3----|-------------------------------|
D|--10/-----------4-------------|--3----------------------------|
A|--10/-----------4-------------|--3----------------------------|
E|--8/------------2-------------|--1----------------------------|

  Gtr. 3 (w/ heavy dist.)
e|--------------2---------------|-------------------------------|
B|-/5---3---3---1---------------|--3---1---3---1------4---------|
G|-/5---4---4-------------------|--3---2---3---1------3---------|
D|------------------------------|-------------------------------|
A|------------------------------|-------------------------------|
E|------------------------------|-------------------------------|

                                           You do it to yourself
  Gtr. 1
e|------------------------------|-------------------------------|
B|--1----1----------------------|-------------------------------|
G|--0----0--x-----3-3-3-3-3-----|--2--2--2--2-2---2-2-2-2-2-----|
D|--2----2--x-0-0-4-4-4-4-4-x-x-|--3--3--3--3-3-x-3-3-3-3-3-x-x-|
A|--3----3--x-0-0-4-4-4-4-4-x-x-|--3--3--3--3-3-x-3-3-3-3-3-x-x-|
E|----------------2-2-2-2-2-x-x-|--1--1--1--1-1-x-1-1-1-1-1-x-x-|

  Gtr. 2
e|---------------------0------0-|-----------------------0-------|
B|------------------------------|---------------------------1---|
G|-------------------------3----|-------------------------------|
D|--10/-----------4-------------|--3----------------------------|
A|--10/-----------4-------------|--3----------------------------|
E|--8/------------2-------------|--1----------------------------|

  Gtr. 3
e|--------------2---------------|-------------------------------|
B|-/5---3---3---1---------------|-/8---6---6---4----------------|
G|-/5---4---4-------------------|-/8---7---7---5----------------|
D|------------------------------|-------------------------------|
A|------------------------------|-------------------------------|
E|------------------------------|-------------------------------|

[3rd Chorus] (2:36)
     you do and that's what really hurts 'cause you do it to yourself
  Gtr. 1
e|------------------------------|-------------------------------|
B|--5--5--5--5-5----------------|-------------------------------|
G|--5--5--5--5-5-x-x-3--3-------|--2--2--2--2-2-2-2-2-2-2-2-----|
D|--5--5--5--5-5-x-x-4--4-------|--3--3--3--3-3-3-3-3-3-3-3-----|
A|--3--3--3--3-3-x-x-4--4-------|--3--3--3--3-3-3-3-3-3-3-3-----|
E|-------------------2--2---0-0-|--1--1--1--1-1-1-1-1-1-1-1-0-0-|

  Gtr. 2
e|---------------------0-----0--|-----------------------0-------|
B|------------------------------|---------------------------1---|
G|-------------------------3----|-------------------------------|
D|--10/-----------4-------------|--3----------------------------|
A|--10/-----------4-------------|--3----------------------------|
E|--8/------------2-------------|--1----------------------------|

  Gtr. 3
e|------------------------------|-------------------------------|
B|------------------------------|-------------------------------|
G|------------------------------|-------------------------------|
D|--10/-----------4---4---4---4-|--3------3------------3--------|
A|--10/-----------4---4---4---4-|--3----------3-------------3/--|
E|--8/------------2---2---2---2-|--1----------------1-----------|

          just you       You and no one else   You do it to your-
  Gtr. 1
e|------------------------------|-------------------------------|
B|--5--5--5--5-5----------------|-------------------------------|
G|--5--5--5--5-5-x-x-3--3-------|--2--2--2--2-2-2-2-2-2-2-2-----|
D|--5--5--5--5-5-x-x-4--4-------|--3--3--3--3-3-3-3-3-3-3-3-----|
A|--3--3--3--3-3-x-x-4--4-------|--3--3--3--3-3-3-3-3-3-3-3-----|
E|-------------------2--2---0-0-|--1--1--1--1-1-1-1-1-1-1-1-0-0-|

  Gtr. 2
e|---------------------0------0-|-----------------------0-------|
B|------------------------------|---------------------------1---|
G|-------------------------3----|-------------------------------|
D|--10/-----------4-------------|--3----------------------------|
A|--10/-----------4-------------|--3----------------------------|
E|--8/------------2-------------|--1----------------------------|

  Gtr. 3
e|------------------------------|-------------------------------|
B|------------------------------|-------------------------------|
G|------------------------------|-------------------------------|
D|--10/-----------4---4---4---4-|--3--3--3--3---3-3-3-3-3-3--3--|
A|--10/-----------4---4---4---4-|--3--3--3--3---3-3-3-3-3-3--3--|
E|--8/------------2---2---2---2-|--1--1--1--1---1-1-1-1-1-1--1--|

                                  -self              You do it to your-
  Gtr. 1
e|--------------------------------|------------------------------------|
B|--1--1-1-1-1-1-1-8--8-8-8-8-8-8-|--7--7--7-7-10---10-10-10-10-10-----|
G|--0--0-0-0-0-0-0-8--8-8-8-8-8-8-|--7--7--7-7-10---10-10-10-10-10-----|
D|--2--2-2-2-2-2-2-8--8-8-8-8-8-8-|--7--7--7-7-10---10-10-10-10-10-----|
A|--3--3-3-3-3-3-3-6--6-6-6-6-6-6-|--5--5--5-5-8----8--8--8--8--8--0-0-|
E|--------------------------------|------------------------------------|

 Gtr. 2
  T.P.-----------------------------------------------------------------|
e|--------------------------------|-------------------------------7-----|
B|--------------------------------|-------------------------------x-----|
G|--5-----------7---8---------10--|--11--------13---14------------4-----|
D|--x-----------x---x---------x---|--x---------x----x-------------------|
A|--3-----------5---6---------8---|--9---------11---12------------------|
E|--------------------------------|-------------------------------------|

  Gtr. 3
e|--------------------------------|-----------------------------------|
B|--------------------------------|-----------------------------------|
G|--5----5----------8--8---8--8-7-|--7----7---------10--10---10---10/-|
D|--x----x----------x--x---x--x-x-|--x----x---------x---x----x----x---|
A|--3----3----------6--6---6--6-5-|--5----5---------8---8----8----8/--|
E|--------------------------------|-----------------------------------|

                                       -self                   Ow
  Gtr. 1
e|--------------------------------|------------------------------------|
B|--1--1-1-1-1-1-1-8--8-8-8-8-8-8-|--7--7--7-7-10---10-10-10-10-10-----|
G|--0--0-0-0-0-0-0-8--8-8-8-8-8-8-|--7--7--7-7-10---10-10-10-10-10-----|
D|--2--2-2-2-2-2-2-8--8-8-8-8-8-8-|--7--7--7-7-10---10-10-10-10-10-----|
A|--3--3-3-3-3-3-3-6--6-6-6-6-6-6-|--5--5--5-5-8----8--8--8--8--8--0-0-|
E|--------------------------------|------------------------------------|

  Gtr. 2
   T.P.---------------------------------------------------------------+
                                                              *P.S.---+
e|--8----------10--11---------13--|--14--------16---17-----------------|
B|--x----------x---x----------x---|--x---------x----x------------------|
G|--5----------7---8----------10--|--11--------13---14----------4------|
D|--------------------------------|-----------------------------x------|
A|--------------------------------|-----------------------------2------|
E|--------------------------------|------------------------------------|

                                 |-------------------------------------|
                                 |*Note: Johnny (Gtr. 2) activates his |
                                 | Digitech Whammy to raise pitch two  |
                                 | octaves higher; continue tremolo    |
                                 | picking.                            |
                                 |-------------------------------------|

  Gtr. 3
e|--------------------------------|------------------------------------|
B|--------------------------------|------------------------------------|
G|--5----5----------8--8---8--8-7-|--7----7---------10--10--10--10/----|
D|--x----x----------x--x---x--x-x-|--x----x---------x---x---x---x------|
A|--3----3----------6--6---6--6-5-|--5----5---------8---8---8---8/-----|
E|--------------------------------|------------------------------------|

  Gtr. 1
e|--------------------------------|------------------------------------|
B|--1--1-1-1-1-1-1-8--8-8-8-8-8-8-|--7--7--7-7-10---10-10-10-10-10-----|
G|--0--0-0-0-0-0-0-8--8-8-8-8-8-8-|--7--7--7-7-10---10-10-10-10-10-----|
D|--2--2-2-2-2-2-2-8--8-8-8-8-8-8-|--7--7--7-7-10---10-10-10-10-10-----|
A|--3--3-3-3-3-3-3-6--6-6-6-6-6-6-|--5--5--5-5-8----8--8--8--8--8--0-0-|
E|--------------------------------|------------------------------------|

 Gtr. 2
  T.P.------------------------------------------------------------------|
  P.S.------------------------------------------------------------------|
e|--------------------------------|--------------------------------7-----|
B|--------------------------------|--------------------------------x-----|
G|--5-----------7---8---------10--|--11--------13---14-------------4-----|
D|--x-----------x---x---------x---|--x---------x----x--------------------|
A|--3-----------5---6---------8---|--9---------11---12-------------------|
E|--------------------------------|--------------------------------------|

  Gtr. 3
e|--------------------------------|------------------------------------|
B|--------------------------------|------------------------------------|
G|--5----5----------8--8---8--8-7-|--7----7---------10---10---10---10/-|
D|--x----x----------x--x---x--x-x-|--x----x---------x----x----x----x---|
A|--3----3----------6--6---6--6-5-|--5----5---------8----8----8----8/--|
E|--------------------------------|------------------------------------|

  Gtr. 1
e|--------------------------------|------------------------------------|
B|--1--1-1-1-1-1-1-8--8-8-8-8-8-8-|--7--7--7-7-10---10-10-10-10-10-----|
G|--0--0-0-0-0-0-0-8--8-8-8-8-8-8-|--7--7--7-7-10---10-10-10-10-10-----|
D|--2--2-2-2-2-2-2-8--8-8-8-8-8-8-|--7--7--7-7-10---10-10-10-10-10-----|
A|--3--3-3-3-3-3-3-6--6-6-6-6-6-6-|--5--5--5-5-8----8--8--8--8--8--0-0-|
E|--------------------------------|------------------------------------|

  Gtr. 2
  T.P.------------------------------------------------------------------|
  P.S.------------------------------------------------------------------|
e|--8----------10--11---------13--|--14--------16---17-------19----------|
B|--x----------x---x----------x---|--x---------x----x--------x-----------|
G|--5----------7---8----------10--|--11--------13---14-------17----------|
D|--------------------------------|--------------------------------------|
A|--------------------------------|--------------------------------------|
E|--------------------------------|--------------------------------------|

   Gtr. 3
e|--------------------------------|------------------------------------|
B|--------------------------------|------------------------------------|
G|--5----5----------8--8---8--8-7-|--7----7---------10--10--10--10/----|
D|--x----x----------x--x---x--x-x-|--x----x---------x---x---x---x------|
A|--3----3----------6--6---6--6-5-|--5----5---------8---8---8---8/-----|
E|--------------------------------|------------------------------------|

  Gtr. 1
e|------------------------------------|
B|------------------------------------|
G|------------------------------------|
D|--10--10--10--10-10-x-8-8-8-8-8-8-7-|
A|--x---x---x---x--x--x-x-x-x-x-x-x-x-|
E|--8---8---8---8--8--x-6-6-6-6-6-6-5-|

 Gtr. 2
 P.S.----------------------------------|
e|--------------------------------------|
B|--------------------------------------|
G|--17~~~~~~~~~~~~~~~~~~~~~~~~~~~~~-----|
D|--------------------------------------|
A|--------------------------------------|
E|--------------------------------------|

  Gtr. 1
e|-------------------------------|-------------------------------------|
B|-------------------------------|-------------------------------------|
G|-----------------8-8-8-8-8-x---|-------------------------------------|
D|--7--7--7--7-7-x-x-x-x-x-x-x---|--8/10-10--10--10-10-x-8-8-8-8-8-8-7-|
A|--x--x--x--x-x-x-6-6-6-6-6-x-0-|--x----x---x---x--x--x-x-x-x-x-x-x-x-|
E|--5--5--5--5-5-x---------------|--6/8--8---8---8--8--x-6-6-6-6-6-6-5-|

  Gtr. 2                          (crazy feedback caused by whammy pedal)
e|-------------------------------|-------------------------------------|
B|-------------------------------|-------------------------------------|
G|--(17)~~~~~~~~~~~~~~~~~~~~~~~~~~~~~~~~~~~~~~~~~~~~~~~~~~~~~~~~~~~~~--|
D|-------------------------------|-------------------------------------|
A|-------------------------------|-------------------------------------|
E|-------------------------------|-------------------------------------|

  Gtr. 1
e|-------------------------------|-------------------------------------|
B|-------------------------------|-------------------------------------|
G|-----------------8-x-8-x-8-8---|-------------------------------------|
D|--7--7--7--7-7-x-x-x-x-x-x-x---|--8/10-10--10--10-10-x-8-8-8-8-8-x-7-|
A|--x--x--x--x-x-x-6-x-6-x-6-6-0-|--x----x---x---x--x--x-x-x-x-x-x-x-x-|
E|--5--5--5--5-5-x---------------|--6/8--8---8---8--8--x-6-6-6-6-6-x-5-|

  Gtr. 2
        *
e|-------------------------------|-------------------------------------|
B|-------------------------------|-------------------------------------|
G|-(17)--------------------------|-------------------------------------|
D|-------------------------------|-------------------------------------|
A|-------------------------------|-------------------------------------|
E|-----14b-----------------------|-------------------------------------|

 |-----------------------------------|
 |*Note: Turn Whammy off on this note|
 |-----------------------------------|

  Gtr. 3 (w/clean tone)
e|-------------------------------|-------------------------------------|
B|----4-------4------------------|-------------------------------------|
G|--x-3-x--x--3------------------|---------------------------------x-x-|
D|--x-2-x--x--2------------------|---------------------------------x-x-|
A|--x---x--x--3------------------|---------------------------------x-x-|
E|-------------------------------|-------------------------------------|

  Gtr. 2 (w/ dist.)
e|-------------------------------|-------------------------------------|
B|-------------------------------|-------------------------------------|
G|-------------------------------|-----8--8---8--8---8---8-8---8-8---8-|
D|-------------------------------|-------------------------------------|
A|-------------------------------|-------------------------------------|
E|-------------------------------|-------------------------------------|

  Gtr. 1
e|-------------------------------|-------------------------------------|
B|-------------------------------|-------------------------------------|
G|-----------------8-8-8-8-8-8---|-------------------------------------|
D|--7--7--7--7-7-x-x-x-x-x-x-x---|--8/10-10--10--10-10-x-8-8-8-8-8-----|
A|--x--x--x--x-x-x-6-6-6-6-6-6-0-|--x----x---x---x--x--x-x-x-x-x-x-0-0-|
E|--5--5--5--5-5-x---------------|--6/8--8---8---8--8--x-6-6-6-6-6-0-0-|

  Gtr. 3
e|-------------------------------|-------------------------------------|
B|----4-------4------------------|-------------------------------------|
G|--x-3-x--x--3------------------|-------------------------------------|
D|--x-2-x--x--2------------------|-------------------------------------|
A|--x-3-x--x--3------------------|-------------------------------------|
E|-------------------------------|-------------------------------------|

  Gtr. 2                               1           1           1
e|------------------------------|---------------------------------|
B|------------------------------|---------------------------------|
G|---8-8--8-8--8--8-8-8-8-8-8-8-|--8h5-5-----5-8h5-------5-8h5-5--|
D|-------------7--7-7-7-7-7-7-7-|------8b----------8b----------8b-|
A|------------------------------|---------------------------------|
E|------------------------------|---------------------------------|

 Gtr. 1
 *T.P.-------------------------------------------------------------|
e|------------------------------|-----------------------------------|
B|------------------------------|--5--5--5---5-5----8-8-8-8-8-8-7---|
G|------------------------------|--5--5--5---5-5--x-8-8-8-8-8-8-7---|
D|--3/------------7-------------|--5--5--5---5-5--x-8-8-8-8-8-8-7---|
A|--3/------------7-------------|--3--3--3---3-3--x-6-6-6-6-6-6-5---|
E|--1/------------5-------------|-----------------------------------|

  Gtr. 3 (w/heavy dist.)
e|------------------------------|---------------------------------|
B|------------------------------|---------------------------------|
G|------------------------------|---------------------------------|
D|------------------------------|--10-10-10-10-10-x-8-8-8-8-8-8-7-|
A|------------------------------|--x--x--x--x--x--x-x-x-x-x-x-x-x-|
E|------------------------------|--8--8--8--8--8--x-6-6-6-6-6-6-5-|

 |-------------------------------------------|
 |*Note: Gtr.1 tremolo picks while sliding up|
 | to the next chord.                        |
 |-------------------------------------------|

  Gtr. 2    1      1      1                1            1            1
e|---------------8pbr-6-------------|-----------------------------------|
B|----------------------8pbr-6------|-----------------------------------|
G|----5-8h5----x---------------8--5-|--8h5--------x-8h5-5------5-8h5----|
D|----------8b----------------------|------8b-----------8b-----------8b-|
A|----------------------------------|-----------------------------------|
E|----------------------------------|-----------------------------------|

  Gtr. 1
e|----------------------------------|-----------------------------------|
B|--7--7--7--7-7---10---10---10-----|--5---5---5---5--5---8-8-8-8-8-8-7-|
G|--7--7--7--7-7-x-10-x-10-x-10-x---|--5---5---5---5--5-x-8-8-8-8-8-8-7-|
D|--7--7--7--7-7-x-10-x-10-x-10-x---|--5---5---5---5--5-x-8-8-8-8-8-8-7-|
A|--5--5--5--5-5-x-8--x-8--x-8--x-0-|--3---3---3---3--3-x-6-6-6-6-6-6-5-|
E|----------------------------------|-----------------------------------|

  Gtr. 3
e|----------------------------------|-----------------------------------|
B|----------------------------------|-----------------------------------|
G|-----------------8--8-8--8-8--x---|-----------------------------------|
D|--7--7--7--7-7-x-x--x-x--x-x--x---|--8/10-10-10-10-10-x-8-8-8-8-8-8-7-|
A|--x--x--x--x-x-x-6--6-6--6-6--x-0-|--x----x--x--x--x--x-x-x-x-x-x-x-x-|
E|--5--5--5--5-5-x------------------|--6/8--8--8--8--8--x-6-6-6-6-6-6-5-|

  Gtr. 2   1  .25.25.25.25.25.25.25.25.25.25       1            1            1
e|------------------------------------------|-----------------------------------|
B|------------7--7--7--7--7--7--7--7--7--7--|-----------------------------------|
G|---5-8h5----10b10b10b10b10b10b10b10b10b10b|--8h5----------8h5--------8-8h5----|
D|---------8b-------------------------------|------8b-------0---8b-----------8b-|
A|------------------------------------------|-----------------------------------|
E|------------------------------------------|------------x----------x-----------|

  Gtr. 1
e|------------------------------------------|-----------------------------------|
B|--7--7--7--7-7-----10-----10-----10-------|--5---5---5---5--5---8-8-8-8-8-8-7-|
G|--7--7--7--7-7--x--10--x--10--x--10--x----|--5---5---5---5--5-x-8-8-8-8-8-8-7-|
D|--7--7--7--7-7--x--10--x--10--x--10--x----|--5---5---5---5--5-x-8-8-8-8-8-8-7-|
A|--5--5--5--5-5--x--8---x--8---x--8---x--0-|--3---3---3---3--3-x-6-6-6-6-6-6-5-|
E|------------------------------------------|-----------------------------------|

  Gtr. 3
e|------------------------------------------|-----------------------------------|
B|------------------------------------------|-----------------------------------|
G|-------------------8---8--8---8--8---x----|-----------------------------------|
D|--7--7--7--7-7--x--x---x--x---x--x---x----|--8/10-10-10-10-10-x-8-8-8-8-8-8-7-|
A|--x--x--x--x-x--x--6---6--6---6--6---x--0-|--x----x--x--x--x--x-x-x-x-x-x-x-x-|
E|--5--5--5--5-5--x-------------------------|--6/8--8--8--8--8--x-6-6-6-6-6-6-5-|

  Gtr. 2           1     1.5               1            1             1
e|-----------------8pb-6------------|-----------------------------------|
B|-----5-----------------8pbr-6-----|-----------------------------------|
G|-----5--8h5----x--------------8-5-|--8h5----------8h5--------5-8h5----|
D|------------8---------------------|------8b-----------8b-----------8br|
A|----------------------------------|-----------------------------------|
E|--x-------------------------------|-----------------------------------|

  Gtr. 1
e|----------------------------------|-----------------------------------|
B|--7--7--7--7-7---10---10---10-----|--5---5---5----------8-8-8-8-8-8-7-|
G|--7--7--7--7-7-x-10-x-10-x-10-x---|--5---5---5----x-x-x-8-8-8-8-8-8-7-|
D|--7--7--7--7-7-x-10-x-10-x-10-x---|--5---5---5----x-x-x-8-8-8-8-8-8-7-|
A|--5--5--5--5-5-x-8--x-8--x-8--x-0-|--3---3---3----x-x-x-6-6-6-6-6-6-5-|
E|----------------------------------|---------------------------------5-|

  Gtr. 3
e|----------------------------------|-----------------------------------|
B|----------------------------------|-----------------------------------|
G|-----------------8--8-8--8-8--x---|-----------------------------------|
D|--7--7--7--7-7-x-x--x-x--x-x--x---|--8/10-10-10-10-10-x-8-8-8-8-8-8-7-|
A|--x--x--x--x-x-x-6--6-6--6-6--x-0-|--x----x--x--x--x--x-x-x-x-x-x-x-x-|
E|--5--5--5--5-5-x------------------|--6/8--8--8--8--8--x-6-6-6-6-6-6-5-|

  Gtr. 2
e|-------------------||
B|-------------------||
G|-------------------||
D|-(8)---------------||
A|-------------------||
E|------0------------||

  Gtr. 1
e|-------------------||
B|--7/---------------||
G|--7/---------------||
D|--7/---------------||
A|--5/---------------||
E|--5/---------------||

  Gtr. 3
e|-------------------||
B|-------------------||
G|-------------------||
D|--7/---------------||
A|--x----------------||
E|--5/---------------||

************************************

| x    Dead note
| (n)  Ghost note
| h    Hammer-on
| b    Bend
| br   Bend release
| pb   Pre-bend
| pbr  Pre-bend release
| /    Slide up
| ~    Vibrato
| T.P. Tremolo picking

************************************
Suggest correction
comments
print report bad tab
18 comments total. Showing first comments.
+2 reply
simonnca 10 Oct 24, 2006 12:33 AM

the solo here its a little hard to follow cause you've got it by guitar, but i think its a better version than the other tab?

+1 reply
aniki27 289 Jun 29, 2007 08:31 AM

nice tab dude, top marks

+1 reply
tbarrettl 261 Sep 26, 2007 06:38 PM

better than the 1st just tab and any other so far

guest
You may want to rate the tab now too:
select rating
Wanna post a correction for this tab? Suggest correction