Oops, an error
Loading. Please wait.
We have an official Karma Police tab made by UG professional guitarists. Check out the tab »
×
41,659 views 36 this week
1 commentread comment
1 2 3 4 5
x 5
add to favorites
×
Save as Personal and add changes to this tab that will be seen only by you. Learn more ›
×
You can save this tab as Personal to edit and correct it or add notes. All changes will be seen only by you. Learn more »
launch autoscroll
font size
0
reset
guitar tuner
backing track
0:00
0:00
edit
Autoscroll
slow
fast
+/-
esc
set tempo
stop
Author
Song - Karma Police
Band - Radiohead
Tabbed by Philip (moon_acid@hotmail.com)

[Intro and 1st verse]
G|-----------------------------------------------|
D|-----------------------------------------------|
A|-----------------------------------------------|
E|5--5--2--2-2-0--2-3-3--5--5-5-1--1-1-0--2-3-3--|

G|-------------------------------------------------|
D|-------------------------------------------2/4---|
A|------------------------3-2------------2-2-----5-|
E|5--5-5/10--10-10-3--3-3------5-5-555-3-----------|

[2nd and 3rd verse]
G|----------------------------------------------------|
D|----------------------------------------------------|
A|-----------------------------------8-8-8-10-7-------|
E|5--5-5-2-2-2-1-0-0-0-2-3-3--5--5-5------------0-2-3-|

G|--------------------------------------------------|
D|--------------------------------------------2/4---|
A|-------5--5-5--------3-3-2-2------------2-2-----5-|
E|5--5-5--------3--3-3----------5-5-555-3-----------|

[Chorus]
no bass until

when you mess with us.....
G|------------------------------|
D|------------------------------|
A|3-3-2-2-----------------------|
E|--------5-5-3-3-2-0-0-2-0-0-2-|

[Outro]
[riff 1]
G|----------------------------------------------------|
D|----------------------------------------------------|
A|2-2-2-2-5-5-5-5------5--------5--5-5-7-7---7-7--5---|
E|----------------3---3--2-0--3------------0----0---7-|

[riff 2]
G|------------------------------------------7---------------------------|
D|----------------------------------7-5-7-9---------7---------------7-7-|
A|2-4-5-2-5-7-9-5-10-12-14-10-5-7-9-----------5-7/9---7---7---9-9-7-----|
E|------------------------------------------------------0---0-----------|

[riff 3]
G|----------------------------------------------------------------|
D|----------------------------------------------------------------|
A|2-4-5-2-5-7-9-5---------5-7-9-5---------5-7-9-5-7-7---7-7---5---|
E|----------------3-5-7-3---------3-5-7-3-------------0-----0---7-|

[Riff 1] x 2
[Riff 2] x 2
[Riff 3]
[Riff 2] x 2

************************************

| /  Slide up

************************************

            
            
Suggest correction
Creating personal tab
Creating personal tab
You can edit any tab online and save it as your Personal.

You can edit, replace or remove any tab part or add personal notes – all changes will be seen only by you.

Personal tabs can be accessed anytime from any device, even offline.
Learn more »
comments
print report bad tab
1 comment total.
0 reply
vanstry 10 Jan 04, 2015 08:32 PM

Why does everyone hate on open strings so much? This could be rewritten with a lot less travel up the neck. Curious as to why it wasn't.

guest
You may want to rate the tab now too:
select rating
Wanna post a correction for this tab? Suggest correction