Oops, an error
Loading. Please wait.
We have an official Karma Police tab made by UG professional guitarists. Check out the tab »
×
41,732 views 204 this week
2 commentsread comments
1 2 3 4 5
x 21
add to favorites
×
Save as Personal and add changes to this tab that will be seen only by you. Learn more ›
×
You can save this tab as Personal to edit and correct it or add notes. All changes will be seen only by you. Learn more »
save as personal
new!
launch autoscroll
font size
0
reset
guitar tuner
backing track
0:00
0:00
Autoscroll
slow
fast
+/-
esc
set tempo
stop
Author
Unregistered
Karma police - Radiohead
Tuning: standard

[Verse]
G|------------------------------------------------------------------|
D|------------------------------------------------------------------|
A|-0---------------0----------------------3-2-0--0-0--2--7-5--------|
E|----2-2--0--2h3-----1-1--0-2h3--5/10\3----------------------------| x2

[Chorus 1]
G|----------------------5-7-------5-7----4--------------------------|
D|-----5-5------------4-----5-5-4-----5-5---------------------------|
A|-3~--------------------------------------3--3-3--2--7-5-----------|
E|-(hold for 2 beats)-----------------------------------------------| 

[Verse]
G|------------------------------------------------------------------|
D|------------------------------------------------------------------|
A|-0---------------0----------------------3-2-0--0-0--2--7-5--------|
E|----2-2--0--2h3-----1-1--0-2h3--5/10\3----------------------------| x2

[Chorus 2]
G|------------------5-7-------5-7----4------------------------------|
D|-----5-5--------4-----5-5-4-----5-5-----------------------------0-|
A|-3~----------------------------------3--2--0----------------------|
E|-(hold for 2 beats)---------------------------3-2-2-0--0-0-0-2-3--| 

[Coda]
G|------------------------------------------------------------------|
D|------------------------------------------------------------------|
A|-2-2--2-5-5-----4-5-------5-5--5-7----7-5-7-9\--------------------|
E|-------------3-------2-3-----------0------------------------------| 

G|------------------------------------------------------------------|
D|------------------------------------------------------------------|
A|-2---5--------2-5-5----------7-7--7--7-7--5-7-7-7-----------------|
E|--------5-3-5-------0-2-3-3---------------------------------------| 

G|---------------------4---------------4-7--------------------------|
D|-------------4---5-7---5-----4-7-5-7---------4-7------------------|
A|-2-4-5-2-5-7---5---------5-7-------------5-7---------7---7h9-9\---|
E|-------------------------------------------------0-0---0----------| 

G|------------------------------------------------------------------|
D|------------------------------------------------------------------|
A|-2-2--2-5-------5-----5--7----7-5-7-7-5-7-5-----------------------|
E|-----------3--3----3-------0--------------------------------------| 

G|------------------------------------------------------------------|
D|------------------------4----------4------------------------------|
A|-2-2--2-5-----------5-7---5----5-7---5-7-7--7-5-7-7---------------|
E|-----------2-3-3--3---------3-----------------------0-------------| 

G|------------------------------------------------------------------|
D|-------------4---------------4---------------4--------------------|
A|-2-4-5-2-5-7---5-----2---5-7---5-----2---5-7---5-7-7--7-7--7\-----|
E|-----------------3-5---3---------3-5---3--------------------------| 

G|---------------------4--------------------------------------------|
D|-------------4---5-7---5-----4---------------4--------------------|
A|-2-4-5-2-5-7---5---------5-7---5-----2---5-7---5-7-7--7-7--7\-----|
E|---------------------------------3-5---3--------------------------| 

G|------------------------------------------------------------------|
D|------------------------------------------------------------------|
A|-2~--2~--2~--2~---------------------------------------------------|
E|------------------------------------------------------------------|

************************************

| h  Hammer-on
| /  Slide up
| \  Slide down
| ~  Vibrato

************************************
Suggest correction
comments
print report bad tab
2 comments total.
+2 reply
btkircher 188 Oct 20, 2012 08:18 AM

This could really use the measures to be able to play along more fluently.

+1 reply
thekryptonian 42 Jul 14, 2014 09:03 AM

I agree with btkircher. It's very hard to pick up on the timing of the notes on this tab.

guest
Wanna post a correction for this tab? Suggest correction