Oops, an error
Loading. Please wait.

Knives Out Tab

version 2
version 2

Whole song

Interactive

139,934 views 264 this week
7 commentsread comments
1 2 3 4 5
x 49
add to favorites
launch autoscroll
font size
0
reset
how to read this tab
guitar tuner
×
Best way to learn
"Knives Out"
Autoscroll
slow
fast
+/-
esc
set tempo
stop
Radiohead - Knives out

I haven't seen a descent tab yet so...This should be correct


                                  Knives Out


Guitar 1 (Lead) : John greenwood

e|------------------------|------------------------|------------------------------|
B|-------------8--8-------|-------------8--8-------|-------------4--4-------------|
G|-------8--8--------8----|-------7--7--------7----|-------5--5--------5----------|
D|------------------------|------------------------|------------------------------|
A|------------------------|------------------------|------------------------------|
E|--8---------------------|--6---------------------|--4---------------------------|

e|-------------------------|-------------------------|------------------------|
B|----------------------4--|--------------4----------|-------------3--3-------|
G|-------------5--5--------|--------5--------5-------|-------3--3--------3----|
D|-------5--5--------5-----|-----5-----5--------5----|------------------------|
A|-------------------------|-------------------------|------------------------|
E|--4----------------------|--4----------------------|--3---------------------|

e|------------------------|-------------0----------|--------------------|
B|-------------3--3-------|----------------3----2--|--------------------|
G|-------2--2--------2----|-------0--0-------------|--------0-----------|
D|------------------------|------------------------|-------------2------|
A|------------------------|------------------------|--------------------|
E|--1---------------------|--0---------------------|--------------------|

e|-------------0----------|---------------------|------------------------|
B|----------------3----2--|---------------------|-------------8--8-------|
G|----------0-------------|---------0-----------|-------8--8--------8----|
D|-------2----------------|----2---------2------|------------------------|
A|------------------------|---------------------|------------------------|
E|--0---------------------|---------------------|--8---------------------|

e|------------------------|-------------------------|------------------------|
B|-------------8--8-------|-------------4--4--------|---------------------4--|
G|-------7--7--------7----|-------5--5--------5-----|------------5--5--------|
D|------------------------|----------------------5--|------5--5--------5-----|
A|------------------------|-------------------------|------------------------|
E|--6---------------------|--4----------------------|------------------------|

e|-----------------------|------------------------|------------------------|
B|-----------------------|-------------3--3-------|-------------3--3-------|
G|------------5--5-------|-------3--3--------3----|-------2--2--------2----|
D|------5--5--------5----|------------------------|------------------------|
A|-----------------------|------------------------|------------------------|
E|-----------------------|--3---------------------|--1---------------------|

e|-------------------------|------------------------|-------------------------|
B|-------------2--2--------|------------------------|-------------------------|
G|-------0--0--------0-----|-------------0--0-------|----------------------0--|
D|----------------------2--|-------2--2--------2----|-------------2--2--------|
A|-------------------------|------------------------|-------2--2--------2-----|
E|--0----------------------|--0---------------------|--0----------------------|

e|-----------------------|------------------------|------------------------|
B|-----------------------|-------------8--8-------|-------------8--8-------|
G|-------0---------------|-------8--8--------8----|-------7--7--------7----|
D|---------------2-------|------------------------|------------------------|
A|-----------------------|------------------------|------------------------|
E|--0-------2-------3----|--8---------------------|--6---------------------|

e|-------------------------|----------------------3--|----------------------|
B|-------------4--4--------|-------------4-----------|----4----------4------|
G|-------5--5--------5-----|----------5-----5--------|---------5------------|
D|----------------------5--|-------5-----------5-----|------------5---------|
A|-------------------------|-------------------------|----------------------|
E|--4----------------------|--4----------------------|----------------------|

e|------------------------|---------------------|-------------0----------|
B|-------------3--3-------|------------3--------|----------------3----2--|
G|-------3--3--------3----|-------2-------------|----------0-------------|
D|------------------------|---------------------|-------2----------------|
A|------------------------|---------------------|------------------------|
E|--3---------------------|--1------------------|----0-------------------|

e|--------------------|------------------------|---------------------|
B|--------------------|------------------------|---------------------|
G|--------------------|------------------------|---------------------|
D|--------2-----------|-----2-------2--0-------|---------2-----------|
A|-------------2------|----------2----------4--|---------0-----------|
E|--------------------|--0---------------------|----0---------0------|

e|---------------------|----------------------|----------------------|
B|--1------------------|--2-------------------|--2---------3----5----|
G|-------2-------------|-------2--------------|-------2--------------|
D|------------2--------|------------2---------|----------------------|
A|---------------------|----------------------|----------------------|
E|---------------------|-----------------3----|----------------------|

e|----------------------|----------------------|----------------------|
B|--6-------------------|--7-------------------|--7---------5----7----|
G|-------7--------------|-------7--------------|-------7--------------|
D|------------7---------|------------7---------|----------------------|
A|-----------------0----|-----------------0----|----------------------|
E|----------------------|----------------------|----------------------|

e|--3----------3-------|---------3------------|----------3----3-------|
B|--3------------------|-------------------3--|--3--------------------|
G|--0------------------|--------------0-------|-----------------------|
D|--0-------------1----|--0-------------------|--0----0----------1----|
A|---------------------|----------------------|-----------------------|
E|--3------------------|----------------------|-----------------------|

e|---------3----------|-------------------------|----------------------|
B|---------3----------|-------------------------|----------------------|
G|---------0----------|-------------------------|-------------------0--|
D|--0-----------------|-----0-----0-----0-------|----------------------|
A|--------------------|--4-----4-----4-------4--|----2---------2-------|
E|--------------------|-------------------------|---------0----0-------|

e|-------------------------|---------------------|--------------6----------|
B|-------------------------|---------------------|--------8--------8----8--|
G|-------------------------|--------------0------|-----8-----8-------------|
D|-----0-----0-----0-------|--------------2------|-------------------------|
A|--4-----4-----4-------4--|----2----------------|-------------------------|
E|-------------------------|---------0-----------|--8----------------------|

e|--------------6---------|--------------3----------|--------3----------------|
B|--------8--------8------|--------4-------------4--|-----4-----4-----4-------|
G|-----7-----7------------|-----5-----5-------5-----|--------------5----------|
D|------------------------|-------------------------|----------------------5--|
A|------------------------|-------------------------|-------------------------|
E|--6---------------------|--4----------------------|--4----------------------|

e|--4--3-------------------|--------------1----------|--------------1----------|
B|-----------4-------------|--------3--------3----3--|--------3--------3----2--|
G|----------------5--------|-----------3-------------|-----------2-------------|
D|--------5----------5-----|-----5-------------------|-----3-------------------|
A|----------------------6--|-------------------------|-------------------------|
E|-------------------------|--3----------------------|--1----------------------|

e|---------------------0--|----------------------|----------------------0--|
B|--------2---------------|----3----2------------|--------2-------3--------|
G|----------------0-------|--------------0-------|-------------0-----0-----|
D|-----2-------2----------|-------------------2--|-----2-------------------|
A|------------------------|----------------------|-------------------------|
E|--0---------------------|----------------------|--0----------------------|

e|---------------------|--------6-----8--6-------|--------6-----8--6------|
B|----3----2-----------|-----------8----------8--|-----------8------------|
G|--------------0------|-----8-------------------|-----7------------------|
D|---------------------|-------------------------|------------------------|
A|---------------------|-------------------------|------------------------|
E|---------------------|--8----------------------|--6---------------------|

e|--------------3-----------|----3--------------4--|----3----------------|
B|--------4--------4-----4--|---------4------------|---------4-----------|
G|-----5-----5--------5-----|--------------5-------|--------------5------|
D|--------------------------|----------------------|---------------------|
A|--------------------------|----------------------|---------------------|
E|--4-----------------------|----------------------|---------------------|

e|--------------1----------|--------------1----------|--------------0----------|
B|--------3--------3----3--|--------3--------3-------|--------2--------3----2--|
G|-----------3-------------|-----------2----------0--|-------------------------|
D|-----5-------------------|-----3-------------------|-----2-----2-------------|
A|-------------------------|-------------------------|-------------------------|
E|--3----------------------|--1----------------------|--0----------------------|

e|------------------------|------------------------|--------------------0--|
B|------------------------|------------------------|-----0----2----3-------|
G|----0----------------0--|----------0----0-----0--|-----------------------|
D|---------2-----2--------|----2-------------2-----|--2--------------------|
A|------------------------|------------------------|-----------------------|
E|------------0-----0-----|-------0----------------|-----------------------|

e|--------------------------------|--------------------------------|
B|-----------------1--------------|-----------------2--------------|
G|------------2---------2---------|------------2---------2---------|
D|-------2-------------------2----|-------2-------------------2----|
A|--0-----------------------------|--------------------------------|
E|--------------------------------|--3-----------------------------|

e|---------------------------0----|-----------------1--------------|
B|-----------------2----3---------|------------3---------3---------|
G|------------2-------------------|-------2-------------------2----|
D|-------2------------------------|--0-----------------------------|
A|--------------------------------|--------------------------------|
E|--3-----------------------------|--------------------------------|

e|-----------------2--------------|----------------------0----2----|
B|------------3---------3---------|------------3----3--------------|
G|-------2-------------------2----|-------2------------------------|
D|--------------------------------|--------------------------------|
A|--3-----------------------------|--3-----------------------------|
E|--------------------------------|--------------------------------|

e|--3------3----3-----3--|---------3-----3-----3--|----------3----3-----3--|
B|--3--------------------|------------------------|------------------------|
G|--0--------------------|------------------------|-------3----------------|
D|--0--------------1-----|--0---------------0-----|--0---------------1-----|
A|-----------------------|------------3-----------|------------------------|
E|--3--------------------|------------------------|------------------------|

e|----------3-------------|-----------------------|-----------------------|
B|----------------3-------|-----------------------|-----------------------|
G|-------3----------------|---------0-------------|-----------------------|
D|--0----------------0----|------4-----4--2----0--|---------0----2--------|
A|-------------3----------|-----------------------|----4------------------|
E|------------------------|-----------------------|-----------------0--0--|

e|------------------------|-----------------------|------------------------|
B|------------------------|-----------------------|-------------8--8-------|
G|----------0-------------|-----------------------|-------8--8--------8----|
D|-------4-----4--2----0--|-----------------------|------------------------|
A|------------------------|----4----2----0-----0--|------------------------|
E|--0---------------------|-----------------0-----|--8---------------------|

e|------------------------|------------------------|-------------------------|
B|-------------8--8-------|-------------4--4-------|----------------------4--|
G|-------7--7--------7----|-------5--5--------5----|-------------5--5--------|
D|------------------------|------------------------|-------5--5--------5-----|
A|------------------------|------------------------|-------------------------|
E|--6---------------------|--4---------------------|--4----------------------|

e|---------------------|------------------------|------------------------|
B|--------------4------|-------------3--3-------|-------------3--3-------|
G|----5----------------|-------3--3--------3----|-------2--2--------2----|
D|---------5-----------|------------------------|------------------------|
A|---------------------|------------------------|------------------------|
E|---------------------|--3---------------------|--1---------------------|

e|-------------------------|------------------------|-------------------------|
B|-------------2--2--------|------------------------|-------------------------|
G|-------0--0--------0-----|------------0--0--------|----------------------0--|
D|----------------------2--|------2--2--------2-----|-------------2--2--------|
A|-------------------------|---------------------2--|-------2--2--------2-----|
E|--0----------------------|------------------------|--0----------------------|

e|---------------------|------------------------|------------------------|
B|---------------------|-------------8--8-------|-------------8--8-------|
G|---------------------|-------8--8--------8----|-------7--7--------7----|
D|----2---------2------|------------------------|------------------------|
A|---------2-----------|------------------------|------------------------|
E|---------------------|--8---------------------|--6---------------------|

e|------------------------|-------------------------|----------------------|
B|-------------4--4-------|----------------------4--|----------4-----------|
G|-------5--5--------5----|-------------5--5--------|----5----------5------|
D|------------------------|-------5--5--------5-----|-------5--------------|
A|------------------------|-------------------------|----------------------|
E|--4---------------------|--4----------------------|----------------------|

e|------------------------|------------------------|-------------------------|
B|-------------3--3-------|-------------3--3-------|-------------------------|
G|-------3--3--------3----|-------2--2--------2----|-------------------------|
D|------------------------|------------------------|-------0-----0-----0-----|
A|------------------------|------------------------|----4-----4-----4-----4--|
E|--3---------------------|--1---------------------|-------------------------|

e|-----------------------|--------------------------|----------------------|
B|-----------------------|--------------------------|----------------------|
G|-----------------------|--------------------------|----------------------|
D|--0--------------------|--0-----0-----0-----0-----|--0-------------------|
A|-----4----2----0----4--|-----4-----4-----4-----4--|-----4----2----0------|
E|-----------------------|--------------------------|----------------------|

e|------------------------|------------------------|------------------------|
B|-------------8--8-------|-------------8--8-------|-------------4--4-------|
G|-------8--8--------8----|-------7--7--------7----|-------5--5--------5----|
D|------------------------|------------------------|------------------------|
A|------------------------|------------------------|------------------------|
E|--8---------------------|--6---------------------|--4---------------------|

e|----------------------3--|---------------------|------------------------|
B|-------------------------|----4---------4------|-------------3--3-------|
G|-------------5--5--------|---------------------|-------3--3--------3----|
D|-------5--5--------5-----|---------5-----------|------------------------|
A|-------------------------|---------------------|------------------------|
E|--4----------------------|---------------------|--3---------------------|

e|------------------------|----------------------0--|---------------------|
B|-------------3--3-------|-------------2--2--------|----3----2-----------|
G|-------2--2--------2----|-------0--0--------0-----|--------------0------|
D|------------------------|-------------------------|---------------------|
A|------------------------|-------------------------|---------------------|
E|--1---------------------|--0----------------------|---------------------|

e|--------------------|---------------------|--------6----------------|
B|--------------------|---------------------|--------------8--8----8--|
G|----------0---------|---------------------|-----8-----8-------------|
D|-----------------2--|----0----------------|-------------------------|
A|--------------------|---------4-----------|-------------------------|
E|--------------------|--------------0------|--8----------------------|

e|--------6--6------------|-----------4----3-----4--|----3-----4----3--------|
B|----------------8--8----|--------4----------------|---------------------4--|
G|-----7------------------|-----5-------------5-----|-------5----------5-----|
D|------------------------|-------------------------|------------------------|
A|------------------------|-------------------------|------------------------|
E|--6---------------------|--4----------------------|------------------------|

e|-----------4----3--------|-----------------------|-----------------------|
B|--------4-------------4--|-------------3---------|-------------3---------|
G|-----5-------------5-----|-------3--3-----3------|-------2--2-----2------|
D|-------------------------|-----------------------|-----------------------|
A|-------------------------|-----------------------|-----------------------|
E|--4----------------------|--3--------------------|--1--------------------|

e|--------------------------|-----------------------|-----------------------|
B|--------------0--0--------|-----------------------|-----------------------|
G|--------0--0--------0--0--|--0-------0---------0--|-----------0-----------|
D|-----2--------------------|-------2-------2-------|--------2-------2------|
A|--------------------------|-----------------------|-----------------------|
E|--0-----------------------|-----------------------|--0--0-----------------|

e|----------------------|--------------------------------|
B|----------------------|-----------------1--------------|
G|----------0-----------|------------2---------2---------|
D|-----------------2----|-------2-------------------2----|
A|-----2----------------|--0-----------------------------|
E|--0-------------------|--------------------------------|

e|--------------------------------|---------------------------0----|
B|-----------------2--------------|-----------------2----3---------|
G|------------2---------2---------|------------2-------------------|
D|-------2-------------------2----|-------2------------------------|
A|--------------------------------|--------------------------------|
E|--3-----------------------------|--3-----------------------------|

e|-----------------1--------------|-----------------2--------------|
B|------------3---------3---------|------------3---------3---------|
G|-------2-------------------2----|-------2-------------------2----|
D|--0-----------------------------|--------------------------------|
A|--------------------------------|--3-----------------------------|
E|--------------------------------|--------------------------------|

e|----------------------0----2----|--3------3----3-----3--|
B|------------3----3--------------|--3--------------------|
G|-------2------------------------|--0--------------------|
D|--------------------------------|--0--------------1-----|
A|--3-----------------------------|-----------------------|
E|--------------------------------|--3--------------------|

e|---------3-----3-----3--|----------3----3-----3--|----------3-------------|
B|------------------------|------------------------|----------------3-------|
G|------------------------|-------3----------------|-------3----------------|
D|--0---------------0-----|--0---------------1-----|--0----------------0----|
A|------------3-----------|------------------------|-------------3----------|
E|------------------------|------------------------|------------------------|

e|-----------------------|-----------------------|------------------------|
B|----------3---------0--|---------2----0--------|----------3-------------|
G|-------0-------0----0--|----0---------------0--|-------0--0----0-----0--|
D|----------2------------|---------2----2--2-----|----2-------------2-----|
A|-----------------------|-----------------------|------------------------|
E|--0--------------------|-----------------------|------------------------|

e|-------------------|------------------||
B|--0----------------|------------------||
G|-------------------|------------------||
D|-------------------|------------------||
A|-------------------|------------------||
E|-------------------|------------------||


Guitar 2 (Rhythm)Thom Yorke

[part1]
e|---------3----3----3--|---------3----3----3--|---------3----3----3---------|
B||---------4----4----4--|---------3----3----3--|---------4----4----4--------|
G||---------5----5----5--|---------3----3----3--|---------5----5----5--------|
D||----------------------|----------------------|----------------------------|
A||--3-------------------|--1-------------------|----------------------------|
E||----------------------|----------------------|--4-------------------------|

e|---------3----3----3--|---------3----------|----------------------|
B|---------4----4----4--|---------4----------|---------3----3----3--|
G|---------5----5----5--|---------5----------|---------3----3----3--|
D|----------------------|--------------------|----------------------|
A|----------------------|--------------------|----------------------|
E|--4-------------------|--4-----------------|--3-------------------|

e|----------------------|----------------------|--------------------|
B|---------3----3----3--|---------3----2----2--|--------3----3------|
G|---------2----2----2--|---------2----0----0--|--------0----0------|
D|----------------------|----------------------|--------------------|
A|----------------------|----------------------|--------------------|
E|--1-------------------|--0-------------------|--------------------|

e|----------------------|---------------------|
B|---------3----3----3--|--------3----3----3--|
G|---------0----0----0--|--------0----0----0--|
D|----------------------|---------------------|
A|----------------------|---------------------|
E|--0-------------------|---------------------|

[part 2]
e|--------------------|---------------------|----------------------|
B|------------3----3--|-------------3----2--|------2------2--2--2--|
G|------------0----0--|------0------2----0--|------0------0--0--0--|
D|--------------------|------2-----------2--|------2------2--2--2--|
A|--------------------|------2--------------|----------------------|
E|--------------------|---------------------|----------------------|

e|----------------------|----------------------|----------------------|
B|-------1------1----1--|-------2------2----2--|-------2------2----2--|
G|-------2------2----2--|-------2------2----2--|-------2------2----2--|
D|--2----2------2----2--|-------2------2----2--|-------2------2----2--|
A|--0-------------------|----------------------|----------------------|
E|----------------------|--3----3------3----3--|--3----3------3----3--|

e|-------1------1----1--|-------2------2----2--|-------2------2----2--|
B|-------3------3----3--|-------3------3----3--|-------3------3----3--|
G|-------2------2----2--|-------2------2----2--|-------2------2----2--|
D|--0----0------0----0--|----------------------|----------------------|
A|----------------------|--3----3------3----3--|--3----3------3----3--|
E|----------------------|----------------------|----------------------|

e|-------3------3--3----|-------3------3--3----|-------3------3--3----|
B|-------3------3--3----|-------3------3--3----|-------3------3--3----|
G|-------0------0--0----|-------0------0--0----|-------0------0--0----|
D|--0----0------0--0----|--0----0------0--0----|-------0------0--0----|
A|--1----1------1--1----|--1----1------1--1----|----------------------|
E|----------------------|----------------------|--3----3------3--3----|

e|-------3------3--3----|----------------------|---------------------|
B|-------3------3--3----|-------2------2----2--|------2------2----2--|
G|-------0------0--0----|-------0------0----0--|------0------0----0--|
D|-------0------0--0----|-------2------2----2--|------2------2----2--|
A|----------------------|----------------------|---------------------|
E|--3----3------3--3----|--0-------------------|---------------------|

e|---------------------|---------------------|
B|------3------3----3--|------3------3----3--|
G|------0------0----0--|------0------0----0--|
D|------2------2----2--|------2------2----2--|
A|---------------------|---------------------|
E|---------------------|---------------------|

Guitar 3 ed o brien

e|-----3--------3--3-------|-----------6-----------|---------------------|
B|--------4--4--------4----|----------------8------|--9------8-----------|
G|--5----------------------|--7/-8--7--------------|----------------8----|
D|-------------------------|-----------------------|---------------------|
A|-------------------------|-----------------------|---------------------|
E|-------------------------|-----------------------|---------------------|

e|----------------------|-----------------------|--------------------|
B|----9------8-------9--|----8-----8----8--8----|----------8--8------|
G|----------------8-----|-------8---------------|--------------------|
D|----------------------|-----------------------|--------------------|
A|----------------------|-----------------------|--------------------|
E|----------------------|-----------------------|--------------------|

e|------------------|------------------------|-----------3-----------|
B|------------------|------3--2--3--2--3--2--|--3--2--3-------3------|
G|------------------|------------------------|-----------------------|
D|------------------|------------------------|-----------------------|
A|------------------|------------------------|-----------------------|
E|------------------|------------------------|-----------------------|

e|------------------------|-----------3-----------|-----3--------3--3-------|
B|------3--2--3--2--3--2--|--3--2--3-------3------|--------4--4--------4----|
G|------------------------|-----------------------|--5----------------------|
D|------------------------|-----------------------|-------------------------|
A|------------------------|-----------------------|-------------------------|
E|------------------------|-----------------------|-------------------------|

e|-----------6-----------|----------------------|------------------------|
B|----------------8------|----9------8-------9--|--8-----8------9--8-----|
G|--7/-8--7--------------|----------------8-----|-----8---------------8--|
D|-----------------------|----------------------|------------------------|
A|-----------------------|----------------------|------------------------|
E|-----------------------|----------------------|------------------------|

e|-----------------------|--------------------|-------------------|
B|--8------9--8-----8----|----------8----8----|------------6------|
G|---------------8-------|--------------------|-------------------|
D|-----------------------|--------------------|-------------------|
A|-----------------------|--------------------|-------------------|
E|-----------------------|--------------------|-------------------|

e|------------------------|-----------3-----------|------------------------|
B|------3--2--3--2--3--2--|--3--2--3-------3------|------3--2--3--2--3--2--|
G|------------------------|-----------------------|------------------------|
D|------------------------|-----------------------|------------------------|
A|------------------------|-----------------------|------------------------|
E|------------------------|-----------------------|------------------------|

e|-----------3-----------|-----3--------3--3-------|-----------6-----------|
B|--3--2--3-------3------|--------4--4--------4----|----------------8------|
G|-----------------------|--5----------------------|--7/-8--7--------------|
D|-----------------------|-------------------------|-----------------------|
A|-----------------------|-------------------------|-----------------------|
E|-----------------------|-------------------------|-----------------------|

e|---------------------|----------------------|-----------------------|
B|--9------8-----------|----9------8-------9--|----8-----8----8--8----|
G|----------------8----|----------------8-----|-------8---------------|
D|---------------------|----------------------|-----------------------|
A|---------------------|----------------------|-----------------------|
E|---------------------|----------------------|-----------------------|

e|--------------------|------------------|------------------------|
B|----------8--8------|------------------|------3--2--3--2--3--2--|
G|--------------------|------------------|------------------------|
D|--------------------|------------------|------------------------|
A|--------------------|------------------|------------------------|
E|--------------------|------------------|------------------------|

e|--------0---------0----|------------------------|--------0---------0----|
B|--3--2---------2-------|------3--2--3--2--3--2--|--3--2---------2-------|
G|-----------------------|------------------------|-----------------------|
D|-----------------------|------------------------|-----------------------|
A|-----------------------|------------------------|-----------------------|
E|-----------------------|------------------------|-----------------------|

e|-----3--------3--3-------|------------------------|-------------------------|
B|--------4--4--------4----|--------8--8------------|-----------4----4-----4--|
G|--5----------------------|----------------7--7----|--------5----------------|
D|-------------------------|-----8------------------|-----6-------------6-----|
A|-------------------------|------------------------|-------------------------|
E|-------------------------|--6---------------------|--4----------------------|

e|------------------------|-----------------------|-----------3----------5--|
B|--4-----4------4-----4--|-----------------------|--------3----------------|
G|-----5------------5-----|--5---------5-----5----|-----0----------3--------|
D|------------------------|---------6-----6-------|-------------------0-----|
A|------------------------|-----------------------|-------------------------|
E|------------------------|-----------------------|--3----------------------|

e|----3---------3------|------------------------|----------0------------|
B|---------3-----------|------3--2--3--2--3--2--|--3--2---------3----2--|
G|---------------------|------------------------|-----------------------|
D|---------------------|------------------------|-----------------------|
A|---------------------|------------------------|-----------------------|
E|---------------------|------------------------|-----------------------|

e|-------------------------|----------------------|------------------|
B|----2--3--2--3--2--3--2--|--3--2----0-----------|------------------|
G|-------------------------|---------------0------|------------------|
D|-------------------------|----------------------|------------------|
A|-------------------------|----------------------|------------------|
E|-------------------------|----------------------|------------------|



************************************

| /  Slide up

************************************
Suggest correction
comments
print report bad tab
7 comments total. Showing first comments. show 1 bad comment
+3 reply
nameless_kid04 10 Mar 04, 2006 05:24 PM

GREAT TAB!!

+5 reply
RustyGold 20 Mar 25, 2006 09:09 PM

Beautiful tab, simply beautiful tab!

Knives out is Radiohead's finest guitar tune...

guest
You may want to rate the tab now too:
select rating
Wanna post a correction for this tab? Suggest correction