Oops, an error
Loading. Please wait.

Last Flowers tab

version 1
version 1

Whole song

Interactive

Video

34,883 views 9 this week
3 commentsread comments
1 2 3 4 5
x 7
add to favorites
×
Save as Personal and add changes to this tab that will be seen only by you. Learn more ›
×
You can save this tab as Personal to edit and correct it or add notes. All changes will be seen only by you. Learn more »
launch autoscroll
font size
0
reset
how to read this tab
guitar tuner
edit
Autoscroll
slow
fast
+/-
esc
set tempo
stop
Author
Difficulty
Band: Radiohead
Song: Last Flowers 'Til Hospital
Guitarist: Thom Yorke
Tabber: Ricardo Pereda
 
  /  slide
 ()  ghost note
 __ hold note


ok, i think this song is played using a capo on the third fret probably, but since
i dont have one i cant really tell...still sounds good to me without it.
 
Intro:
e --------------------------------------------------------------0-----
b -1------1-------1-------1--------1-------1------1-------1----1--1---
g ----2-------2-------2-------2--------0------0------0--------0----0--
d -----------------------------------------------------------2--------
a --0---0---0---0---0---0---0---0(3)--3--3---3--3---3---3---3---------
E --------------------------------------------------------------------

e --------------------------------4-------4-------4--------6-------|
b -0-------0------0-------0-----------6-------6-------6--------8---|
g ----0-------0------0-------0-------------------------------------|
d ----------------------------------3---3---3---3---3---3/---5---5-|
a --2---2---2---2---2--2----2--2-----------------------------------|
E -----------------------------------------------------------------|

thats pretty much for the intro, after last part restart from Am and do the whole
thing and uve got the VERSE.

i wont type the strummin pattern on the chorus, its pretty simple- u can get the
timing by listening to the song.


1st Chorus:

***reliee______________f
  Dm    Am     Gm  F  C  E____
e -1--1--------0---1--0--0----|
b -3--3--1-3-1-0---1--1--0----|
g -2--0--2-2-2-0---2--0--0----|
d -0--0--2-2-2-0---3--2--2----|
a -0--2--0-0-0-2---3--3--2----|
E -------------3---1----------|


--- back to verse again, then:


2nd Chorus:

  Dm    Am     Gm  F  C  E
e -1--1--------0---1--0--0----|
b -3--3--1-3-1-0---1--1--0----|
g -2--0--2-2-2-0---2--0--0----|
d -0--0--2-2-2-0---3--2--2----|
a -0--2--0-0-0-2---3--3--2----|
E -------------3---1----------|

on the last one before the outro he switches to sumthin like this:


  Dm    Am     Gm  A____
e -1--1--------0---0--0--|
b -3--3--1-3-1-0---2--3--|
g -2--0--2-2-2-0---2--2--|
d -0--0--2-2-2-0---2--2--|
a -0--2--0-0-0-2---0--0--|
E -------------3---------|

then, to the outro:

   C  E  A___________
e -0--0-----------------|
b -1--0--2-3------------|
g -0--0--2-2------------|
d -2--2--2-2------------|
a -3--2--0-0------------|
E ----------------------|


absolutely amazing song, when u think thom might be running out of ideas, u get
something as beautiful and simple as this.

******Thom Yorke For Emperor Of The Galaxy******


comments corrections email irotinmyskin@gmail.com


            
            
Suggest correction
Creating personal tab
Creating personal tab
You can edit any tab online and save it as your Personal.

You can edit, replace or remove any tab part or add personal notes – all changes will be seen only by you.

Personal tabs can be accessed anytime from any device, even offline.
Learn more »
comments
print report bad tab
3 comments total.
0 reply
b34 83 Nov 30, 2005 08:14 AM

Great tab, been trying to figure it out for a while myself. He doesnt use a capo on third with this chord pattern, but after the intro, I THINK he plays the Am chord differently (for the verses), see below and try playing it next to the original song:

e -0------0-------0-------0--------
b ----1-------1-------1-------1----
g ---------------------------------
d ---------------------------------
a --0---0---0---0---0---0---0---0--
E ---------------------------------

Also, the root note changes to be played on the low E string sometimes, but its hard to tell when because of the quality of the recording.

Just my interpretation anyway

0 reply
irotinmyskin 432 Dec 05, 2005 06:52 PM

hello, i tried that and i believe ur right, theres a slight picking variation but it sounds right like u said. thnx a lot man

0 reply
Mortigi Tempo 20 Jul 12, 2006 06:56 AM

version 've got sounds like capo on 8th

guest
You may want to rate the tab now too:
select rating
Wanna post a correction for this tab? Suggest correction