Oops, an error
Loading. Please wait.

Let Down tab

version 3
version 3

Whole song

Interactive

3,560 views 54 this week
1 commentread comment
1 2 3 4 5
2 more votes to show rating
add to favorites
×
Save as Personal and add changes to this tab that will be seen only by you. Learn more ›
×
You can save this tab as Personal to edit and correct it or add notes. All changes will be seen only by you. Learn more »
launch autoscroll
font size
0
reset
how to read this tab
guitar tuner
backing track
0:00
0:00
edit
Autoscroll
slow
fast
+/-
esc
set tempo
stop
Entirely thanks to great BeeSideProject version on youtube & help of justguitar-hiro's tutorials.

Double drop-D. Sounds good with capo on 2nd fret (tabbed without).


Intro (pick):

D|-5--------------0----|----------------4----|----------------0----|----------------5----|
B|------0--------------|------0--------------|------0--------------|------0--------------|
G|-----------5---------|-----------5---------|-----------5---------|-----------5---------|
D|-5-------------------|-5-------------------|-5-------------------|-5-------------------|
A|---------------------|---------------------|---------------------|---------------------|
D|---------------------|---------------------|---------------------|---------------------|


D|----------------0----|----------------4----|----------------0----|----------------5----|
B|------0--------------|------0--------------|------0--------------|------0--------------|
G|-----------5---------|-----------5---------|-----------5---------|-----------5---------|
D|-5-------------------|-5-------------------|-0-------------------|-0-------------------|
A|---------------------|---------------------|---------------------|---------------------|
D|---------------------|---------------------|---------------------|---------------------|


D|----------------0----|----------------4----|----------------0----|----------------5----|
B|------0--------------|------0--------------|------0--------------|------0--------------|
G|-----------5---------|-----------5---------|-----------5---------|-----------5---------|
D|-2-------------------|-2-------------------|-2-------------------|-2-------------------|
A|---------------------|---------------------|---------------------|---------------------|
D|---------------------|---------------------|---------------------|---------------------|


D|----------------0----|----------------4----|----------------0----|----------------5----|
B|------0--------------|------0--------------|------0--------------|------0--------------|
G|-----------5---------|-----------5---------|-----------5---------|-----------5---------|
D|-2-------------------|-2-------------------|-0-------------------|-0-------------------|
A|---------------------|---------------------|---------------------|---------------------|
D|---------------------|---------------------|---------------------|---------------------|


Verse (with gentle strum):

D|----------------0----|----------------4----|----------------0----|----------------5----|
B|------0--------------|------0--------------|------0--------------|------0--------------|
G|-----------5---------|-----------5---------|-----------5---------|-----------5---------|
D|-5-------------------|-5-------------------|-5-------------------|-5-------------------|
A|---------------------|---------------------|---------------------|---------------------|
D|---------------------|---------------------|---------------------|---------------------|
  Transport

D|----------------0----|----------------4----|----------------0----|----------------5----|
B|------0--------------|------0--------------|------0--------------|------0--------------|
G|-----------5---------|-----------5---------|-----------5---------|-----------5---------|
D|-0-------------------|-0-------------------|-0-------------------|-0-------------------|
A|---------------------|---------------------|---------------------|---------------------|
D|---------------------|---------------------|---------------------|---------------------|
  Tramlines

D|----------------0----|----------------4----|----------------0----|----------------5----|
B|------0--------------|------0--------------|------0--------------|------0--------------|
G|-----------5---------|-----------5---------|-----------5---------|-----------5---------|
D|-2-------------------|-2-------------------|-2-------------------|-2-------------------|
A|---------------------|---------------------|---------------------|---------------------|
D|---------------------|---------------------|---------------------|---------------------|
  Stopping

D|----------------0----|----------------4----|----------------0----|----------------5----|
B|------0--------------|------0--------------|------0--------------|------0--------------|
G|-----------5---------|-----------5---------|-----------5---------|-----------5---------|
D|-0-------------------|-0-------------------|-0-------------------|-0-------------------|
A|---------------------|---------------------|---------------------|---------------------|
D|---------------------|---------------------|---------------------|---------------------|
  Landing

D|----------------0----|----------------4----|----------------0----|----------------5----|
B|------0--------------|------0--------------|------0--------------|------0--------------|
G|-----------5---------|-----------5---------|-----------5---------|-----------5---------|
D|---------------------|---------------------|---------------------|---------------------|
A|---------------------|---------------------|---------------------|---------------------|
D|-5-------------------|-5-------------------|-5-------------------|-5-------------------|
  Feelings

D|----------------0----|----------------4----|----------------0----|----------------5----|
B|------0--------------|------0--------------|------0--------------|------0--------------|
G|-----------5---------|-----------5---------|-----------5---------|-----------5---------|
D|---------------------|---------------------|---------------------|---------------------|
A|---------------------|---------------------|---------------------|---------------------|
D|-0-------------------|-0-------------------|-0-------------------|-0-------------------|
  People

D|----------------0----|----------------4----|----------------0----|----------------5----|
B|------0--------------|------0--------------|------0--------------|------0--------------|
G|-----------5---------|-----------5---------|-----------5---------|-----------5---------|
D|---------------------|---------------------|---------------------|---------------------|
A|---------------------|---------------------|---------------------|---------------------|
D|-2-------------------|-2-------------------|-2-------------------|-2-------------------|
  Bottles

D|----------------0----|----------------4----|----------------0----|----------------5----|
B|------0--------------|------0--------------|------0--------------|------0--------------|
G|-----------5---------|-----------5---------|-----------5---------|-----------5---------|
D|---------------------|---------------------|---------------------|---------------------|
A|---------------------|---------------------|---------------------|---------------------|
D|-0-------------------|-0-------------------|-0-------------------|-0-------------------|
  So so


Chorus:

D|---------------------|---------------------|---------------------|---------------------|
B|-5---------5---------|-3---------3---------|-3---------3---------|-0--------------0----|
G|------0---------0----|------0---------0----|------0---------5----|-----------0---------|
D|---------------------|---------------------|---------------------|------0--------------|
A|-3-------------------|---------------------|---------------------|---------------------|
D|---------------------|-4-------------------|-5-------------------|-2-------------------|
  Let down

D|-5--------------4----|------0--------------|
B|------0--------------|----------------1----|
G|-----------0---------|---------------------|
D|---------------------|---------------------|  REPEAT
A|---------------------|---------------------|
D|-2-------------------|-2---------2---------|


D|---------------------|---------------------|---------------------|---------------------|
B|-5---------5---------|-3---------3---------|-3---------3---------|-0--------------0----|
G|------0---------0----|------0---------0----|------0---------5----|-----------0---------|
D|---------------------|---------------------|---------------------|------0--------------|
A|-3-------------------|---------------------|---------------------|---------------------|
D|---------------------|-4-------------------|-5-------------------|-2-------------------|


D|---------------------|---------------------|
B|---------------------|---------------------|
G|-2---------2----0----|---------------------|
D|------0--------------|-4----0--------------|
A|---------------------|-----------0---------|
D|-0-------------------|----------------4----|


Verse (pick):

D|----------------0----|----------------4----|----------------0----|----------------5----|
B|------0--------------|------0--------------|------0--------------|------0--------------|
G|-----------5---------|-----------5---------|-----------5---------|-----------5---------|
D|---------------------|---------------------|---------------------|---------------------| REPEAT
A|---------------------|---------------------|---------------------|---------------------|
D|-5-------------------|-5-------------------|-5-------------------|-5-------------------|


Verse (with strum):

D|----------------0----|----------------4----|----------------0----|----------------5----|
B|------0--------------|------0--------------|------0--------------|------0--------------|
G|-----------5---------|-----------5---------|-----------5---------|-----------5---------|
D|---------------------|---------------------|---------------------|---------------------|
A|---------------------|---------------------|---------------------|---------------------|
D|-5-------------------|-5-------------------|-5-------------------|-5-------------------|
  Shell smashed

D|----------------0----|----------------4----|----------------0----|----------------5----|
B|------0--------------|------0--------------|------0--------------|------0--------------|
G|-----------5---------|-----------5---------|-----------5---------|-----------5---------|
D|---------------------|---------------------|---------------------|---------------------|
A|---------------------|---------------------|---------------------|---------------------|
D|-0-------------------|-0-------------------|-0-------------------|-0-------------------|
  Wings twitch

D|----------------0----|----------------4----|----------------0----|----------------5----|
B|------0--------------|------0--------------|------0--------------|------0--------------|
G|-----------5---------|-----------5---------|-----------5---------|-----------5---------|
D|---------------------|---------------------|---------------------|---------------------|
A|---------------------|---------------------|---------------------|---------------------|
D|-2-------------------|-2-------------------|-2-------------------|-2-------------------|
  Don't get

D|----------------0----|----------------4----|----------------0----|----------------5----|
B|------0--------------|------0--------------|------0--------------|------0--------------|
G|-----------5---------|-----------5---------|-----------5---------|-----------5---------|
D|---------------------|---------------------|---------------------|---------------------|
A|---------------------|---------------------|---------------------|---------------------| REPEAT (One day...)
D|-0-------------------|-0-------------------|-0-------------------|-0-------------------|
  It always


Chorus (with strum):

D|---------------------|---------------------|---------------------|---------------------|
B|-5---------5---------|-3---------3---------|-3---------3---------|-0--------------0----|
G|------0---------0----|------0---------0----|------0---------5----|-----------0---------|
D|---------------------|---------------------|---------------------|------0--------------|
A|-3-------------------|---------------------|---------------------|---------------------|
D|---------------------|-4-------------------|-5-------------------|-2-------------------|
  Let down

D|-5--------------4----|------0--------------|
B|------0--------------|----------------1----|
G|-----------0---------|---------------------|
D|---------------------|---------------------|  REPEAT
A|---------------------|---------------------|
D|-2-------------------|-2---------2---------|


D|---------------------|---------------------|---------------------|---------------------|
B|-5---------5---------|-3---------3---------|-3---------3---------|-0--------------0----|
G|------0---------0----|------0---------0----|------0---------5----|-----------0---------|
D|---------------------|---------------------|---------------------|------0--------------|
A|-3-------------------|---------------------|---------------------|---------------------|
D|---------------------|-4-------------------|-5-------------------|-2-------------------|


D|---------------------|---------------------|
B|---------------------|---------------------|
G|-2---------2----0----|---------------------|
D|------0--------------|-4----0--------------|
A|---------------------|-----------0---------|
D|-0-------------------|----------------4----|


Solo:

D|------0--------------|---------------------|---------------------|---------------------|
B|---------------------|----------------8----|----------------8----|----------------8----|
G|----------------9----|------11-------------|------11-------------|------11-------------|
D|---------------------|---------------------|---------------------|---------------------|
A|-10--------10--------|-10--------10--------|-10--------10--------|-10--------10--------|
D|---------------------|---------------------|---------------------|---------------------|


D|------0--------------|---------------------|---------------------|---------------------|
B|---------------------|----------------8----|----------------8----|----------------12---|
G|----------------9----|------11-------------|------11-------------|------11-------------|
D|---------------------|---------------------|---------------------|---------------------|
A|-10--------10--------|-10--------10--------|-10--------10--------|-10--------10--------|
D|---------------------|---------------------|---------------------|---------------------|


D|------0--------------|---------------------|---------------------|---------------------|
B|---------------------|----------------8----|----------------8----|----------------8----|
G|----------------9----|------11-------------|------11-------------|------11-------------|
D|---------------------|---------------------|---------------------|---------------------|
A|-10--------10--------|-10--------10--------|-10--------10--------|-10--------10--------|
D|---------------------|---------------------|---------------------|---------------------|


D|------0--------------|---------------------|---------------------|----------------12---|
B|---------------------|----------------8----|----------------8----|---------------------|
G|----------------9----|------11-------------|------11-------------|------11-------------|
D|---------------------|---------------------|---------------------|---------------------|
A|-10--------10--------|-10--------10--------|-10--------10--------|-10--------10--------| 
D|---------------------|---------------------|---------------------|---------------------|

REPEAT x2 (building up strumming)


Ending (with strum):

D|-0------|-0------|-5-----4-----|-0-----------|-----------------|-----------------|
B|-0------|-0------|-0-----0-----|-0-----5-----|-5p----3----3p---|-----------------|
G|-0------|-0------|-0-----0-----|-0-----0-----|-0-----0----0----|-3 /  4----4-----|
D|-2------|-4------|-0-----0-----|-0-----0-----|-0-----0----0----|-0----0----0-----|
A|-3------|-5------|-------------|-------------|-----------------|-----------------|
D|--------|--------|-5-----5-----|-5-----5-----|-5-----5----5----|-5----5----5-----|


D|-5-----4-----|-0-----------|-----------------|-----------------|
B|-0-----0-----|-0-----5-----|-5-----3----3----|-3----3----0-----|
G|-0-----0-----|-0-----0-----|-0-----0----0----|-3----4----4-----|
D|-0-----0-----|-0-----0-----|-0-----0----0----|-0----0----0-----|
A|-------------|-------------|-----------------|-----------------|
D|-5-----5-----|-5-----5-----|-5-----5----5----|-5----5----5-----|


D|-5-----4-----|-0-----5-----|-4-----0-----|-5------|
B|-0-----0-----|-0-----0-----|-0-----0-----|-0------|
G|-0-----0-----|-0-----0-----|-0-----0-----|-0------|
D|-0-----0-----|-0-----0-----|-0-----0-----|-0------|
A|-------------|-------------|-------------|--------|
D|-5-----5-----|-5-----5-----|-5-----5-----|-5------|


D|----------------0----|----------------4----|----------------0----|----------------5----|
B|------0--------------|------0--------------|------0--------------|------0--------------|
G|-----------5---------|-----------5---------|-----------5---------|-----------5---------|
D|---------------------|---------------------|---------------------|---------------------|
A|---------------------|---------------------|---------------------|---------------------|
D|-5-------------------|-5-------------------|-5-------------------|-5-------------------|
  You know...

D|----------------0----|----------------4----|----------------0----|----------------5----|
B|------0--------------|------0--------------|------0--------------|------0--------------|
G|-----------5---------|-----------5---------|-----------5---------|-----------5---------|
D|---------------------|---------------------|---------------------|---------------------|
A|---------------------|---------------------|---------------------|---------------------|
D|-0-------------------|-0-------------------|-0-------------------|-0-------------------|
  Are with...

D|----------------0----|----------------4----|----------------0----|----------------5----|
B|------0--------------|------0--------------|------0--------------|------0--------------|
G|-----------5---------|-----------5---------|-----------5---------|-----------5---------|
D|---------------------|---------------------|---------------------|---------------------|
A|---------------------|---------------------|---------------------|---------------------|
D|-2-------------------|-2-------------------|-2-------------------|-2-------------------|
  Are with...

D|----------------0----|----------------4----|----------------0----|----------------5----|
B|------0--------------|------0--------------|------0--------------|------0--------------|
G|-----------5---------|-----------5---------|-----------5---------|-----------5---------|
D|---------------------|---------------------|---------------------|---------------------|
A|---------------------|---------------------|---------------------|---------------------|
D|-0-------------------|-0-------------------|-0-------------------|-0-------------------| REPEAT (One day...)
  Floating...


End Chorus (with strum):

D|---------------------|---------------------|---------------------|---------------------|
B|-5---------5---------|-3---------3---------|-3---------3---------|-0--------------0----|
G|------0---------0----|------0---------0----|------0---------5----|-----------0---------|
D|---------------------|---------------------|---------------------|------0--------------|
A|-3-------------------|---------------------|---------------------|---------------------|
D|---------------------|-4-------------------|-5-------------------|-2-------------------|
  Let Down...

D|-5--------------4----|------0--------------|
B|------0--------------|----------------1----|
G|-----------0---------|---------------------|
D|---------------------|---------------------|  REPEAT
A|---------------------|---------------------|
D|-2-------------------|-2---------2---------|


D|---------------------|---------------------|---------------------|---------------------|
B|-5---------5---------|-3---------3---------|-3---------3---------|-0--------------0----|
G|------0---------0----|------0---------0----|------0---------5----|-----------0---------|
D|---------------------|---------------------|---------------------|------0--------------|
A|-3-------------------|---------------------|---------------------|---------------------|
D|---------------------|-4-------------------|-5-------------------|-2-------------------|

D|---------------------|---------------------|--------|
B|---------------------|---------------------|--------|
G|-2---------2----0----|---------------------|-0------|
D|------0--------------|-4----0--------------|-0------|
A|---------------------|-----------0---------|-5------|
D|-0-------------------|----------------4----|-5------|

Suggest correction
Creating personal tab
Creating personal tab
You can edit any tab online and save it as your Personal.

You can edit, replace or remove any tab part or add personal notes – all changes will be seen only by you.

Personal tabs can be accessed anytime from any device, even offline.
Learn more »
Give kudos to tab author, rate the tab!
1 2 3 4 5
comments
print report bad tab
1 comment total.
0 reply
DanDun 10 Apr 19, 2016 10:10 PM

Absolutely amazing! I was working on making my own but you beat me to it. Great tab!

guest
Wanna post a correction for this tab? Suggest correction