Oops, an error
Loading. Please wait.

Lift Live tab

version 1
version 1

Whole song

Interactive

1,663 views 294 this week
no commentswrite comment
1 2 3 4 5
x 3
add to favorites
×
Save as Personal and add changes to this tab that will be seen only by you. Learn more ›
×
You can save this tab as Personal to edit and correct it or add notes. All changes will be seen only by you. Learn more »
launch autoscroll
font size
0
reset
how to read this tab
guitar tuner
backing track
0:00
0:00
edit
Autoscroll
slow
fast
+/-
esc
set tempo
stop
The tab is written in relation to the capo placement, also make sure to tune the high e down to a d.

[Intro]
d|-0--0-0--0--0-0--0-0--0-0-0-|-0--0-0--0--0-0--0-0--0-0-0-|
B|-0--0-0--0--0-0--0-0--0-0-0-|-0--0-0--0--0-0--0-0--0-0-0-|
G|-0--0-0--0--0-0--0-0--0-0-0-|-0--0-0--0--0-0--0-0--0-0-0-|  
D|-5--5-5--5--5-5--5-5--5-5-5-|-5--5-5--5--5-5--5-5--5-5-5-|  
A|-5--5-5--5--5-5--5-5--5-5-5-|-5--5-5--5--5-5--5-5--5-5-5-|
E|-3--3-3--3--3-3--3-3--5-3-3-|-3--3-3--3--3-3--3-3--3-3-3-|

d|-0--0-0--0--0-0--0-0--0-0-0-|-0--0-0--0--0-0--0-0--0-0-0-|
B|-0--0-0--0--0-0--0-0--0-0-0-|-0--0-0--0--0-0--0-0--0-0-0-|
G|-0--0-0--0--0-0--0-0--0-0-0-|-0--0-0--0--0-0--0-0--0-0-0-|
D|-5--5-5--5--5-5--5-5--5-5-5-|-5--5-5--5--5-5--5-5--5-5-5-|
A|-5--5-5--5--5-5--5-5--5-5-5-|-5--5-5--5--5-5--5-5--5-5-5-|
E|-3--3-3--3--3-3--3-3--5-3-3-|-3--3-3--3--3-3--3-3--5-3-3-|

[Verse]   
(The chord changes come at odd times occasionally, so I'll put the lyrics of the first verse 
and chorus to give a better sense of the timing)

  This                 is the  place                   sit

d|-0--0-0--0--0-0--0-0--0-0-0-|-0--0-0--0--0-0--0-0--0-0-0-|
B|-0--0-0--0--0-0--0-0--0-0-0-|-0--0-0--0--0-0--0-0--0-0-0-|
G|-0--0-0--0--0-0--0-0--0-0-0-|-0--0-0--0--0-0--0-0--0-0-0-|  
D|-5--5-5--5--5-5--5-5--5-5-5-|-5--5-5--5--5-5--5-5--5-5-5-|  
A|-5--5-5--5--5-5--5-5--5-5-5-|-5--5-5--5--5-5--5-5--5-5-5-|
E|-3--3-3--3--3-3--3-3--5-3-3-|-3--3-3--3--3-3--3-3--3-3-3-|

  down                  you're safe   

d|-0--0-0--0--0-0--0-0--0-0-0-|-0--0-0--0--0-0--0-0--0-0-0-|
B|-0--0-0--0--0-0--0-0--0-0-0-|-0--0-0--0--0-0--0-0--0-0-0-|
G|-0--0-0--0--0-0--0-0--0-0-0-|-2--2-2--2--2-2--2-2--2-2-2-|
D|-5--5-5--5--5-5--5-5--5-5-5-|-3--3-3--3--3-3--3-3--3-3-3-|
A|-5--5-5--5--5-5--5-5--5-5-5-|-3--3-3--3--3-3--3-3--3-3-3-|
E|-3--3-3--3--3-3--3-3--5-3-3-|-1--1-1--1--1-1--1-1--1-1-1-|

   now

d|-0--0-0--0--0-0--0-0--0-0-0-|-0--0-0--0--0-0--0-0--0-0-0-|
B|-0--0-0--0--0-0--0-0--0-0-0-|-0--0-0--0--0-0--0-0--0-0-0-|
G|-0--0-0--0--0-0--0-0--0-0-0-|-0--0-0--0--0-0--0-0--0-0-0-|
D|-3--3-3--3--3-3--3-3--3-3-3-|-2--2-2--2--2-2--2-2--2-2-2-|
A|-3--3-3--3--3-3--3-3--3-3-3-|-2--2-2--2--2-2--2-2--2-2-2-|
E|-1--1-1--1--1-1--1-1--1-1-1-|-0--0-0--0--0-0--0-0--0-0-0-|

                      you've been

d|-0--0-0--0--0-0--0-0--0-0-0-|
B|-1--1-1--1--1-1--1-1--1-1-1-|
G|-0--0-0--0--0-0--0-0--0-0-0-|
D|-2--2-2--2--2-2--2-2--2-2-2-|
A|-3--3-3--3--3-3--3-3--3-3-3-|
E|-0--0-0--0--0-0--0-0--0-0-0-|

  stuck                  in a   lift                we've been

d|-0--0-0--0--0-0--0-0--0-0-0-|-0--0-0--0--0-0--0-0--0-0-0-|
B|-0--0-0--0--0-0--0-0--0-0-0-|-0--0-0--0--0-0--0-0--0-0-0-|
G|-0--0-0--0--0-0--0-0--0-0-0-|-0--0-0--0--0-0--0-0--0-0-0-|  
D|-5--5-5--5--5-5--5-5--5-5-5-|-5--5-5--5--5-5--5-5--5-5-5-|  
A|-5--5-5--5--5-5--5-5--5-5-5-|-5--5-5--5--5-5--5-5--5-5-5-|
E|-3--3-3--3--3-3--3-3--5-3-3-|-3--3-3--3--3-3--3-3--3-3-3-|

  trying                    to reach          you            
  
d|-0--0-0--0--0-0--0-0--0-0-0-|--------------|--------------|
B|-0--0-0--0--0-0--0-0--0-0-0-|-----0--------|-----0--------|
G|-0--0-0--0--0-0--0-0--0-0-0-|---2---2----2-|---2---2----2-|
D|-5--5-5--5--5-5--5-5--5-5-5-|-3-------3----|-3-------3----|
A|-5--5-5--5--5-5--5-5--5-5-5-|--------------|--------------|
E|-3--3-3--3--3-3--3-3--5-3-3-|--------------|--------------|

  Thom

d|-------------|-0--0-0--0--0-0--0-0--0-0-0-|
B|-----0-------|-1--1-1--1--1-1--1-1--1-1-1-|
G|---0---0---0-|-0--0-0--0--0-0--0-0--0-0-0-|
D|-2-------2---|-2--2-2--2--2-2--2-2--2-2-2-|
A|-------------|-3--3-3--3--3-3--3-3--3-3-3-|
E|-------------|-0--0-0--0--0-0--0-0--0-0-0-|


d|-0--0-0--0--0-0--0-0--0-0-0-|
B|-1--1-1--1--1-1--1-1--1-1-1-|
G|-0--0-0--0--0-0--0-0--0-0-0-|
D|-2--2-2--2--2-2--2-2--2-2-2-|
A|-3--3-3--3--3-3--3-3--3-3-3-|
E|-0--0-0--0--0-0--0-0--0-0-0-|

  This                  is the  place                it won't

d|-0--0-0--0--0-0--0-0--0-0-0-|-0--0-0--0--0-0--0-0--0-0-0-|
B|-0--0-0--0--0-0--0-0--0-0-0-|-0--0-0--0--0-0--0-0--0-0-0-|
G|-0--0-0--0--0-0--0-0--0-0-0-|-0--0-0--0--0-0--0-0--0-0-0-|  
D|-5--5-5--5--5-5--5-5--5-5-5-|-5--5-5--5--5-5--5-5--5-5-5-|  
A|-5--5-5--5--5-5--5-5--5-5-5-|-5--5-5--5--5-5--5-5--5-5-5-|
E|-3--3-3--3--3-3--3-3--5-3-3-|-3--3-3--3--3-3--3-3--3-3-3-|

  hurt                       ever            a-            
  
d|-0--0-0--0--0-0--0-0--0-0-0-|--------------|--------------|
B|-0--0-0--0--0-0--0-0--0-0-0-|-----0--------|-----0--------|
G|-0--0-0--0--0-0--0-0--0-0-0-|---2---2----2-|---2---2----2-|
D|-5--5-5--5--5-5--5-5--5-5-5-|-3-------3----|-3-------3----|
A|-5--5-5--5--5-5--5-5--5-5-5-|--------------|--------------|
E|-3--3-3--3--3-3--3-3--5-3-3-|--------------|--------------|

 -gain

d|-------------|-0--0-0--0--0-0--0-0--0-0-0-|
B|-----0-------|-1--1-1--1--1-1--1-1--1-1-1-|
G|---0---0---0-|-0--0-0--0--0-0--0-0--0-0-0-|
D|-2-------2---|-2--2-2--2--2-2--2-2--2-2-2-|
A|-------------|-3--3-3--3--3-3--3-3--3-3-3-|
E|-------------|-0--0-0--0--0-0--0-0--0-0-0-|

d|-0--0-0--0--0-0--0-0--0-0-0-|
B|-1--1-1--1--1-1--1-1--1-1-1-|
G|-0--0-0--0--0-0--0-0--0-0-0-|
D|-2--2-2--2--2-2--2-2--2-2-2-|
A|-3--3-3--3--3-3--3-3--3-3-3-|
E|-0--0-0--0--0-0--0-0--0-0-0-|

[Chorus]
    
    The smell of air              The fish are belly up
               conditioning 

d|-0--0-0--0--0-0--0-0--0-0-0-|-0--0-0--0--0-0--0-0--0-0-0-|
B|-0--0-0--0--0-0--0-0--0-0-0-|-0--0-0--0--0-0--0-0--0-0-0-|
G|-0--0-0--0--0-0--0-0--0-0-0-|-0--0-0--0--0-0--0-0--0-0-0-|  
D|-5--5-5--5--5-5--5-5--5-5-5-|-5--5-5--5--5-5--5-5--5-5-5-|  
A|-5--5-5--5--5-5--5-5--5-5-5-|-5--5-5--5--5-5--5-5--5-5-5-|
E|-3--3-3--3--3-3--3-3--5-3-3-|-3--3-3--3--3-3--3-3--3-3-3-|

     Empty all your pockets       cause it's 
   
d|-0--0-0--0--0-0--0-0--0-0-0-|-0--0-0--0-|
B|-0--0-0--0--0-0--0-0--0-0-0-|-0--0-0--0-|
G|-0--0-0--0--0-0--0-0--0-0-0-|-0--0-0--0-|  
D|-5--5-5--5--5-5--5-5--5-5-5-|-5--5-5--5-|  
A|-5--5-5--5--5-5--5-5--5-5-5-|-5--5-5--5-|
E|-3--3-3--3--3-3--3-3--5-3-3-|-3--3-3--3-|

  time                                              to come
   
d|-0--0-0--0--0-0--0-0--0-0-0-|-0--0-0--0--0-0--0-0--0-0-0-|
B|-0--0-0--0--0-0--0-0--0-0-0-|-0--0-0--0--0-0--0-0--0-0-0-|
G|-2--2-2--2--2-2--2-2--2-2-2-|-2--2-2--2--2-2--2-2--2-2-2-|
D|-3--3-3--3--3-3--3-3--3-3-3-|-3--3-3--3--3-3--3-3--3-3-3-|
A|-3--3-3--3--3-3--3-3--3-3-3-|-3--3-3--3--3-3--3-3--3-3-3-|
E|-1--1-1--1--1-1--1-1--1-1-1-|-1--1-1--1--1-1--1-1--1-1-1-|

  home

d|-0--0-0--0--0-0--0-0--0-0-0-|-0--0-0--0--0-0--0-0--0-0-0-|
B|-0--0-0--0--0-0--0-0--0-0-0-|-1--1-1--1--1-1--1-1--1-1-1-|
G|-0--0-0--0--0-0--0-0--0-0-0-|-0--0-0--0--0-0--0-0--0-0-0-|
D|-2--2-2--2--2-2--2-2--2-2-2-|-2--2-2--2--2-2--2-2--2-2-2-|
A|-2--2-2--2--2-2--2-2--2-2-2-|-3--3-3--3--3-3--3-3--3-3-3-|
E|-0--0-0--0--0-0--0-0--0-0-0-|-0--0-0--0--0-0--0-0--0-0-0-|

[Verse]             
d|-0--0-0--0--0-0--0-0--0-0-0-|-0--0-0--0--0-0--0-0--0-0-0-|
B|-0--0-0--0--0-0--0-0--0-0-0-|-0--0-0--0--0-0--0-0--0-0-0-|
G|-0--0-0--0--0-0--0-0--0-0-0-|-0--0-0--0--0-0--0-0--0-0-0-|  
D|-5--5-5--5--5-5--5-5--5-5-5-|-5--5-5--5--5-5--5-5--5-5-5-|  
A|-5--5-5--5--5-5--5-5--5-5-5-|-5--5-5--5--5-5--5-5--5-5-5-|
E|-3--3-3--3--3-3--3-3--5-3-3-|-3--3-3--3--3-3--3-3--3-3-3-|

d|-0--0-0--0--0-0--0-0--0-0-0-|-0--0-0--0--0-0--0-0--0-0-0-|
B|-0--0-0--0--0-0--0-0--0-0-0-|-0--0-0--0--0-0--0-0--0-0-0-|
G|-0--0-0--0--0-0--0-0--0-0-0-|-2--2-2--2--2-2--2-2--2-2-2-|
D|-5--5-5--5--5-5--5-5--5-5-5-|-3--3-3--3--3-3--3-3--3-3-3-|
A|-5--5-5--5--5-5--5-5--5-5-5-|-3--3-3--3--3-3--3-3--3-3-3-|
E|-3--3-3--3--3-3--3-3--5-3-3-|-1--1-1--1--1-1--1-1--1-1-1-|

d|-0--0-0--0--0-0--0-0--0-0-0-|-0--0-0--0--0-0--0-0--0-0-0-|
B|-0--0-0--0--0-0--0-0--0-0-0-|-0--0-0--0--0-0--0-0--0-0-0-|
G|-0--0-0--0--0-0--0-0--0-0-0-|-0--0-0--0--0-0--0-0--0-0-0-|
D|-3--3-3--3--3-3--3-3--3-3-3-|-2--2-2--2--2-2--2-2--2-2-2-|
A|-3--3-3--3--3-3--3-3--3-3-3-|-2--2-2--2--2-2--2-2--2-2-2-|
E|-1--1-1--1--1-1--1-1--1-1-1-|-0--0-0--0--0-0--0-0--0-0-0-|

d|-0--0-0--0--0-0--0-0--0-0-0-|
B|-1--1-1--1--1-1--1-1--1-1-1-|
G|-0--0-0--0--0-0--0-0--0-0-0-|
D|-2--2-2--2--2-2--2-2--2-2-2-|
A|-3--3-3--3--3-3--3-3--3-3-3-|
E|-0--0-0--0--0-0--0-0--0-0-0-|

d|-0--0-0--0--0-0--0-0--0-0-0-|-0--0-0--0--0-0--0-0--0-0-0-|
B|-0--0-0--0--0-0--0-0--0-0-0-|-0--0-0--0--0-0--0-0--0-0-0-|
G|-0--0-0--0--0-0--0-0--0-0-0-|-0--0-0--0--0-0--0-0--0-0-0-|  
D|-5--5-5--5--5-5--5-5--5-5-5-|-5--5-5--5--5-5--5-5--5-5-5-|  
A|-5--5-5--5--5-5--5-5--5-5-5-|-5--5-5--5--5-5--5-5--5-5-5-|
E|-3--3-3--3--3-3--3-3--5-3-3-|-3--3-3--3--3-3--3-3--3-3-3-|
   
d|-0--0-0--0--0-0--0-0--0-0-0-|--------------|--------------|
B|-0--0-0--0--0-0--0-0--0-0-0-|-----0--------|-----0--------|
G|-0--0-0--0--0-0--0-0--0-0-0-|---2---2----2-|---2---2----2-|
D|-5--5-5--5--5-5--5-5--5-5-5-|-3-------3----|-3-------3----|
A|-5--5-5--5--5-5--5-5--5-5-5-|--------------|--------------|
E|-3--3-3--3--3-3--3-3--5-3-3-|--------------|--------------|

d|-------------|-0--0-0--0--0-0--0-0--0-0-0-|
B|-----0-------|-1--1-1--1--1-1--1-1--1-1-1-|
G|---0---0---0-|-0--0-0--0--0-0--0-0--0-0-0-|
D|-2-------2---|-2--2-2--2--2-2--2-2--2-2-2-|
A|-------------|-3--3-3--3--3-3--3-3--3-3-3-|
E|-------------|-0--0-0--0--0-0--0-0--0-0-0-|

d|-0--0-0--0--0-0--0-0--0-0-0-|
B|-1--1-1--1--1-1--1-1--1-1-1-|
G|-0--0-0--0--0-0--0-0--0-0-0-|
D|-2--2-2--2--2-2--2-2--2-2-2-|
A|-3--3-3--3--3-3--3-3--3-3-3-|
E|-0--0-0--0--0-0--0-0--0-0-0-|

[Chorus]
d|-0--0-0--0--0-0--0-0--0-0-0-|-0--0-0--0--0-0--0-0--0-0-0-|
B|-0--0-0--0--0-0--0-0--0-0-0-|-0--0-0--0--0-0--0-0--0-0-0-|
G|-0--0-0--0--0-0--0-0--0-0-0-|-0--0-0--0--0-0--0-0--0-0-0-|  
D|-5--5-5--5--5-5--5-5--5-5-5-|-5--5-5--5--5-5--5-5--5-5-5-|  
A|-5--5-5--5--5-5--5-5--5-5-5-|-5--5-5--5--5-5--5-5--5-5-5-|
E|-3--3-3--3--3-3--3-3--5-3-3-|-3--3-3--3--3-3--3-3--3-3-3-|
   
d|-0--0-0--0--0-0--0-0--0-0-0-|-0--0-0--0-|
B|-0--0-0--0--0-0--0-0--0-0-0-|-0--0-0--0-|
G|-0--0-0--0--0-0--0-0--0-0-0-|-0--0-0--0-|  
D|-5--5-5--5--5-5--5-5--5-5-5-|-5--5-5--5-|  
A|-5--5-5--5--5-5--5-5--5-5-5-|-5--5-5--5-|
E|-3--3-3--3--3-3--3-3--5-3-3-|-3--3-3--3-|

d|-0--0-0--0--0-0--0-0--0-0-0-|-0--0-0--0--0-0--0-0--0-0-0-|
B|-0--0-0--0--0-0--0-0--0-0-0-|-0--0-0--0--0-0--0-0--0-0-0-|
G|-2--2-2--2--2-2--2-2--2-2-2-|-2--2-2--2--2-2--2-2--2-2-2-|
D|-3--3-3--3--3-3--3-3--3-3-3-|-3--3-3--3--3-3--3-3--3-3-3-|
A|-3--3-3--3--3-3--3-3--3-3-3-|-3--3-3--3--3-3--3-3--3-3-3-|
E|-1--1-1--1--1-1--1-1--1-1-1-|-1--1-1--1--1-1--1-1--1-1-1-|

d|-0--0-0--0--0-0--0-0--0-0-0-|-0--0-0--0--0-0--0-0--0-0-0-|
B|-0--0-0--0--0-0--0-0--0-0-0-|-1--1-1--1--1-1--1-1--1-1-1-|
G|-0--0-0--0--0-0--0-0--0-0-0-|-0--0-0--0--0-0--0-0--0-0-0-|
D|-2--2-2--2--2-2--2-2--2-2-2-|-2--2-2--2--2-2--2-2--2-2-2-|
A|-2--2-2--2--2-2--2-2--2-2-2-|-3--3-3--3--3-3--3-3--3-3-3-|
E|-0--0-0--0--0-0--0-0--0-0-0-|-0--0-0--0--0-0--0-0--0-0-0-|

d|-0--0-0--0--0-0--0-0--0-0-0-|-0--0-0--0--0-0--0-0--0-0-0-|
B|-0--0-0--0--0-0--0-0--0-0-0-|-0--0-0--0--0-0--0-0--0-0-0-|
G|-0--0-0--0--0-0--0-0--0-0-0-|-0--0-0--0--0-0--0-0--0-0-0-|  
D|-5--5-5--5--5-5--5-5--5-5-5-|-5--5-5--5--5-5--5-5--5-5-5-|  
A|-5--5-5--5--5-5--5-5--5-5-5-|-5--5-5--5--5-5--5-5--5-5-5-|
E|-3--3-3--3--3-3--3-3--5-3-3-|-3--3-3--3--3-3--3-3--3-3-3-|

d|-0--0-0--0--0-0--0-0--0-0-0-|-0--0-0--0-|
B|-0--0-0--0--0-0--0-0--0-0-0-|-0--0-0--0-|
G|-0--0-0--0--0-0--0-0--0-0-0-|-0--0-0--0-|  
D|-5--5-5--5--5-5--5-5--5-5-5-|-5--5-5--5-|  
A|-5--5-5--5--5-5--5-5--5-5-5-|-5--5-5--5-|
E|-3--3-3--3--3-3--3-3--5-3-3-|-3--3-3--3-|

d|-0--0-0--0--0-0--0-0--0-0-0-|-0--0-0--0--0-0--0-0--0-0-0-|
B|-0--0-0--0--0-0--0-0--0-0-0-|-0--0-0--0--0-0--0-0--0-0-0-|
G|-2--2-2--2--2-2--2-2--2-2-2-|-2--2-2--2--2-2--2-2--2-2-2-|
D|-3--3-3--3--3-3--3-3--3-3-3-|-3--3-3--3--3-3--3-3--3-3-3-|
A|-3--3-3--3--3-3--3-3--3-3-3-|-3--3-3--3--3-3--3-3--3-3-3-|
E|-1--1-1--1--1-1--1-1--1-1-1-|-1--1-1--1--1-1--1-1--1-1-1-|

d|-0--0-0--0--0-0--0-0--0-0-0-|-0--0-0--0--0-0--0-0--0-0-0-|
B|-0--0-0--0--0-0--0-0--0-0-0-|-1--1-1--1--1-1--1-1--1-1-1-|
G|-0--0-0--0--0-0--0-0--0-0-0-|-0--0-0--0--0-0--0-0--0-0-0-|
D|-2--2-2--2--2-2--2-2--2-2-2-|-2--2-2--2--2-2--2-2--2-2-2-|
A|-2--2-2--2--2-2--2-2--2-2-2-|-3--3-3--3--3-3--3-3--3-3-3-|
E|-0--0-0--0--0-0--0-0--0-0-0-|-0--0-0--0--0-0--0-0--0-0-0-|

[Outro]
d|-0--0-0--0--0-0--0-0--0-0-0-|-0--0-0--0--0-0--0-0--0-0-0-|
B|-0--0-0--0--0-0--0-0--0-0-0-|-0--0-0--0--0-0--0-0--0-0-0-|
G|-0--0-0--0--0-0--0-0--0-0-0-|-0--0-0--0--0-0--0-0--0-0-0-|  
D|-5--5-5--5--5-5--5-5--5-5-5-|-5--5-5--5--5-5--5-5--5-5-5-|  
A|-5--5-5--5--5-5--5-5--5-5-5-|-5--5-5--5--5-5--5-5--5-5-5-|
E|-3--3-3--3--3-3--3-3--5-3-3-|-3--3-3--3--3-3--3-3--3-3-3-|

d|-0--0-0--0--0-0--0-0--0-0-0-|-0-------------|---------------|
B|-0--0-0--0--0-0--0-0--0-0-0-|-0----0--------|-----0---------|
G|-0--0-0--0--0-0--0-0--0-0-0-|-2--2---2----2-|---2---2-----2-|
D|-5--5-5--5--5-5--5-5--5-5-5-|-3---------3---|-3--------3----| 
A|-5--5-5--5--5-5--5-5--5-5-5-|-3-------------|---------------|
E|-3--3-3--3--3-3--3-3--5-3-3-|-1-------------|---------------|

d|-------------|-------------|
B|-----0-------|-----0-------|
G|---0---0---0-|---0---0---0-|
D|-2-------2---|-2-------2---|
A|-------------|-------------|
E|-------------|-------------|

d|----------0------|
B|-0-1-0----0------|
G|-------2--4------|
D|----------5------|
A|----------5------|
E|----------3------|

            
            
Suggest correction
Creating personal tab
Creating personal tab
You can edit any tab online and save it as your Personal.

You can edit, replace or remove any tab part or add personal notes – all changes will be seen only by you.

Personal tabs can be accessed anytime from any device, even offline.
Learn more »
Give kudos to tab author, rate the tab!
1 2 3 4 5
comments
print report bad tab
guest
You may want to rate the tab now too:
select rating
Wanna post a correction for this tab? Suggest correction