Oops, an error
Loading. Please wait.

Lotus Flower Acoustic tab

version 4
version 4

Whole song

Interactive

6,709 views 6 this week
no commentswrite comment
1 2 3 4 5
2 more votes to show rating
add to favorites
×
Save as Personal and add changes to this tab that will be seen only by you. Learn more ›
×
You can save this tab as Personal to edit and correct it or add notes. All changes will be seen only by you. Learn more »
launch autoscroll
font size
0
reset
how to read this tab
guitar tuner
edit
Autoscroll
slow
fast
+/-
esc
set tempo
stop
Tuning: CGDF#BE

[Intro]
(Now to get started you have your pointer on the C (E) for the bass note and your middle
and ring on the F# and B (G and B) and it starts like this)
e |---------------------------------|
B |----------3---------3------3-----|
F#|---------3---------3------3-----|
D |--------0---------0--------------|
G |---------------------------------|
C |-----2---------2--------2--------|

So you continue to play around with those notes on the D, F#, and B in any order you
like (together or by themselves), its very loose considering the unique rhythm. Meanwhile
just switch the bass notes with your pointer and pinky. Here's the order"

e |----------------------------------------------------------------------------|
B |----------------------------------------------------------------------------|
F#|---------------------------------------------------------------------------|
D |----------------------------------------------------------------------------|
G |-------------------0------------------0-------------------4-----------------|
C |--2-----5-0------5-----5-2---5-0----5-----5-2----5-0----5-----5-2---0-2-----|

e |----------------------------------------------------------------------------|
B |----------------------------------------------------------------------------|
F#|---------------------------------------------------------------------------|
D |----------------------------------------------------------------------------|
G |---4------------------------------------------------------------------------|
C |-5---------0-2---5-2----5-2-----5-------------------------------------------|

[Verse]
"I will shape myself into your pockets"
e |-----------------------------|
B |--------3--------3------3----|
F#|-------3--------3------3----| (Repeat until "do what you want" then)
D |------0--------0-------------|
G |-----------------------------|
C |---2--------5---------0------|

e |------------------------------|
B |------------------------------|
F#|----5------5-----5-----------| (Repeat twice then go back into first part)
D |---5------5-------------------|
G |-0----------------------------|
C |--------4-------5-------------|

End on this

e |------------|
B |--------3---|
F#|-------3---| (Repeat a few times until chorus)
D |------0-----|
G |------------|
C |---2--------|

[Chorus]

"Theres an empty space inside my heart..."

The first part of the chorus is identical to the verses except you dont need to end on
that last bit.

"Slowly we unfurl..."
e |--------------|
B |----------3---|
F#|-------3-----|
D |--------------| (x5)
G |----3---------|
C |--------------|

e |--------------|
B |--------------|
F#|------4------|
D |-----5--------| (x5)
G |--0-----------|
C |--------------|

            
            
Suggest correction
Creating personal tab
Creating personal tab
You can edit any tab online and save it as your Personal.

You can edit, replace or remove any tab part or add personal notes – all changes will be seen only by you.

Personal tabs can be accessed anytime from any device, even offline.
Learn more »
Give kudos to tab author, rate the tab!
1 2 3 4 5
comments
print report bad tab
guest
Wanna post a correction for this tab? Suggest correction