Oops, an error
Loading. Please wait.

Man Of War bass

version 1
version 1

Whole song

  • A lot of the high neck stuff could be played multi... Show more

Interactive

778 views 45 this week
no commentswrite comment
1 2 3 4 5
1 last vote to show rating
add to favorites
×
Save as Personal and add changes to this tab that will be seen only by you. Learn more ›
×
You can save this tab as Personal to edit and correct it or add notes. All changes will be seen only by you. Learn more »
launch autoscroll
font size
0
reset
guitar tuner
edit
Autoscroll
slow
fast
+/-
esc
set tempo
stop
About this tab version
A lot of the high neck stuff could be played multiple ways (higher up on the neck on different strings), so play what feels comfortable to you. Was this info helpful? Yes No
[Intro - Bass at 00:12]

   1  ^  +  ^  2  ^  +  ^  3  ^  +  ^  4  ^  +  ^    1  ^  +  ^  2  ^  +  ^  3  ^  +  ^  4  ^  +  ^ 
G|-------------------------------------------------|-------------------------------------------------|
D|-7~----------------------------------------9-h10-|-9~----------------------------------------10h12-|
A|-------------------------------------------------|-------------------------------------------------|
E|-------------------------------------------------|-------------------------------------------------|

   1  ^  +  ^  2  ^  +  ^  3  ^  +  ^  4  ^  +  ^    1  ^  +  ^  2  ^  +  ^  3  ^  +  ^  4  ^  +  ^ 
G|-------------------------------------------9--7--|-------------------------------------------------|
D|-10~---------------------------------------------|-------------------------------------------------|
A|-------------------------------------------------|-9~----------------------------9-h10p9-----------|
E|-------------------------------------------------|-------------------------------------------10\---|

   1  ^  +  ^  2  ^  +  ^  3  ^  +  ^  4  ^  +  ^    1  ^  +  ^  2  ^  +  ^  3  ^  +  ^  4  ^  +  ^ 
G|-------------------------------------------------|-------------------------------------------------|
D|-------------------------------------------------|-------------------------------------------------|
A|-------------------------------------------------|-9-----------9-----------9-----9-----------10\---|
E|-5--------------------5--5-----5-----------5/----|----------------------9-----------------9--------|

   1  ^  +  ^  2  ^  +  ^  3  ^  +  ^  4  ^  +  ^    1  ^  +  ^  2  ^  +  ^  3  ^  +  ^  4  ^  +  ^ 
G|-------------------------------------------------|-------------------------------------------------|
D|-------------------------------------------------|-------------------------9-----------------------|
A|-8-----------8-----------8--x--8--------8--8-----|-9-----9-----10~---------------7-----10-----9----|
E|----------------------8--------------------------|-------------------------------------------------|


[Verse]

   1  ^  +  ^  2  ^  +  ^  3  ^  +  ^  4  ^  +  ^    1  ^  +  ^  2  ^  +  ^  3  ^  +  ^  4  ^  +  ^ 
G|-------------------------------------------------|-------------------------------------------------|
D|-------------------------------------------------|-------------4~----------------------------------|
A|-------------------------------------------------|-------------------------------------------------|
E|-5~----------5~----5--5--5~----------------5--0--|-2~----------------2--2--x-----2-----------2--0--|

   1  ^  +  ^  2  ^  +  ^  3  ^  +  ^  4  ^  +  ^    1  ^  +  ^  2  ^  +  ^  3  ^  +  ^  4  ^  +  ^ 
G|-------------------------------------------------|-------------------------------------------------|
D|-------------------------------------------------|-------------------------------------------------|
A|-------------------------------------------------|-------------------------2-h3-p2-----------------|
E|-1~----------1~----1--1--x--1--1~----------1-----|--2----------3--------3--------------0-----3-----|

   1  ^  +  ^  2  ^  +  ^  3  ^  +  ^  4  ^  +  ^    1  ^  +  ^  2  ^  +  ^  3  ^  +  ^  4  ^  +  ^ 
G|-------------------------------------------------|-------------------------------------------------|
D|-------------------------------------------------|-------------------------------------------------|
A|-------------------------------------------------|-------------------------------------------------|
E|-5~----------5~----5--5--5~----5-----5--5--5-h7--|-2~----------2~----2--2--3-----2~----------2--0--|

   1  ^  +  ^  2  ^  +  ^  3  ^  +  ^  4  ^  +  ^    1  ^  +  ^  2  ^  +  ^  3  ^  +  ^  4  ^  +  ^ 
G|-------------------------------------------------|-------------------------------------------------|
D|-------------------------------------------------|-------------------------------5-----7--5--------|
A|-------------------------------------------------|------------------------/7-----------------3-----|
E|-1~----------1~-------1--x--x--1~----------1--0--|-2-----------3-----------------------------------|


[Instrumental Chorus]

   1  ^  +  ^  2  ^  +  ^  3  ^  +  ^  4  ^  +  ^    1  ^  +  ^  2  ^  +  ^  3  ^  +  ^  4  ^  +  ^ 
G|-------------------------------------------------|-------------------------------------------------|
D|-------------------------------------------------|---~---------------------------------------------|
A|-0~-------------------0--0-----0-----------7--8--|-9-----------------------9-----9-----------10\---|
E|-------------------------------------------------|----------------------9--------------------------|

   1  ^  +  ^  2  ^  +  ^  3  ^  +  ^  4  ^  +  ^    1  ^  +  ^  2  ^  +  ^  3  ^  +  ^  4  ^  +  ^ 
G|-------------------------------------------------|-------------------------------------------------|
D|-------------------------------------------------|-------------------------7-----9-----------------|
A|-8~----------8~----------8-----8~----------7/----|-9-----9-----10~---------------------10----7\----|
E|----------------------8--------------------------|-------------------------------------------------|


[Verse]

   1  ^  +  ^  2  ^  +  ^  3  ^  +  ^  4  ^  +  ^    1  ^  +  ^  2  ^  +  ^  3  ^  +  ^  4  ^  +  ^ 
G|-------------------------------------------------|-------------------------------------------------|
D|-------------------------------------------------|-------------4-----------------------------------|
A|-------------------------------------------------|-------------------------------------------------|
E|-5-----------------------------5-----------5--0--|-2~-------------------2--2-----2-----------2--0--|

   1  ^  +  ^  2  ^  +  ^  3  ^  +  ^  4  ^  +  ^    1  ^  +  ^  2  ^  +  ^  3  ^  +  ^  4  ^  +  ^ 
G|-------------------------------------------------|-------------------------------------------------|
D|-------------3-----------------------------------|-------------------------------5--------5--------|
A|-------------------------------------------------|------------------------/7-----------7-----3-----|
E|-1~-------------------1--1-----1~----------1--0--|-2-----2-----3-----------------------------------|

   1  ^  +  ^  2  ^  +  ^  3  ^  +  ^  4  ^  +  ^    1  ^  +  ^  2  ^  +  ^  3  ^  +  ^  4  ^  +  ^ 
G|-------------------------------------------------|-------------------------------------------------|
D|-------------------------------------------------|-------------------------------4-----------------|
A|-0~-------------------0--0-----0-----------7--8--|-9\-------------------------------------x--7-----|
E|-------------------------------------------------|-------------2--------2--2--------------------8--|

   1  ^  +  ^  2  ^  +  ^  3  ^  +  ^  4  ^  +  ^    1  ^  +  ^  2  ^  +  ^  3  ^  +  ^  4  ^  +  ^ 
G|-------------------------------------------------|-------------------------------------------------|
D|-------------------------------------------------|-------------------------------------------------|
A|-8\-------------------x--x-----8-----------7-----|-9-----9-----10----10---/12----10----------------|
E|-------------1--------------------------------7--|------------------------------------/12----8-----|


[Heavy Chorus]

   1  ^  +  ^  2  ^  +  ^  3  ^  +  ^  4  ^  +  ^    1  ^  +  ^  2  ^  +  ^  3  ^  +  ^  4  ^  +  ^ 
G|-------------------------------------------------|-------------------------------------------------|
D|-------------------------------------------------|-------------4~----------------------------------|
A|-------------------------------------------------|-------------------------------------------------|
E|-5~----------5~-------5--5-----5~----------5--0--|-2~-------------------2--2-----2~----------2--0--|

   1  ^  +  ^  2  ^  +  ^  3  ^  +  ^  4  ^  +  ^    1  ^  +  ^  2  ^  +  ^  3  ^  +  ^  4  ^  +  ^ 
G|-------------------------------------------------|-------------------------------------------------|
D|-------------------------------------------------|-------------------------------------------5-----|
A|-------------------------------------------------|-------------------------------5-----7-----------|
E|-1~----------1~-------1--1-----1~----------1--0--|--2----------3----------/7-----------------------|

   1  ^  +  ^  2  ^  +  ^  3  ^  +  ^  4  ^  +  ^    1  ^  +  ^  2  ^  +  ^  3  ^  +  ^  4  ^  +  ^ 
G|-------------------------------------------------|-------------------------------------------------|
D|-------------7\----------------------------------|-------------------------------------------------|
A|-0~-------------------0--0-----0-----------7--8--|-9\----------------------------------------------|
E|-------------------------------------------------|-------------2--------2--2-----2~----------2--0--|

   1  ^  +  ^  2  ^  +  ^  3  ^  +  ^  4  ^  +  ^    1  ^  +  ^  2  ^  +  ^  3  ^  +  ^  4  ^  +  ^ 
G|-------------------------------------------------|-------------------------------------------------|
D|-------------3~----------------------------------|-------------------------------------------------|
A|-------------------------------------------------|-------------------------------------------------|
E|-1~-------------------1--1-----1-----------0--1--|-2-----2-----3-----3-----5-----5----/10----------|


[Bridge]

   1  ^  +  ^  2  ^  +  ^  3  ^  +  ^  4  ^  +  ^    1  ^  +  ^  2  ^  +  ^  3  ^  +  ^  4  ^  +  ^ 
G|-------------------------------------------------|-------------------------------------------------|
D|-------------------------------------------------|-------------------------------------------------|
A|-------------------------------------------------|-------------------------------------------------|
E|-8~----------------------7~----------/-----------|-/17~--------------------15~---------------------|

   1  ^  +  ^  2  ^  +  ^  3  ^  +  ^  4  ^  +  ^    1  ^  +  ^  2  ^  +  ^  3  ^  +  ^  4  ^  +  ^ 
G|-------------------------------------------------|-------------------------------------------------|
D|-------------4-----------------------------------|-------------------------------------------------|
A|-------------------------------------2/----8-----|-------7-----8-----7-----8-----7-----------7-----|
E|-2-----------------------2-----5--5--------------|-------------------------------------8-----------|

   1  ^  +  ^  2  ^  +  ^  3  ^  +  ^  4  ^  +  ^    1  ^  +  ^  2  ^  +  ^  3  ^  +  ^  4  ^  +  ^ 
G|-------------------------------------------------|-------------------------------------------------|
D|-------------4-----------------------------------|-------------------------10----9-----------------|
A|-------------------------------------2/----8-----|-------7-----8-----7-----------------10----7-----|
E|-2-----------------------2-----5--5--------------|-------------------------------------------------|


[Heavy Chorus]

   1  ^  +  ^  2  ^  +  ^  3  ^  +  ^  4  ^  +  ^    1  ^  +  ^  2  ^  +  ^  3  ^  +  ^  4  ^  +  ^ 
G|-------------------------------------------------|-------------------------------------------------|
D|-------------------------------------------------|-------------4~----------------------------------|
A|-------------------------------------------------|-------------------------------------------------|
E|-5~----------5~-------5--5-----5~----------5--0--|-2~-------------------2--2-----2~----------2--0--|

   1  ^  +  ^  2  ^  +  ^  3  ^  +  ^  4  ^  +  ^    1  ^  +  ^  2  ^  +  ^  3  ^  +  ^  4  ^  +  ^ 
G|-------------------------------------------------|-------------------------------------------------|
D|-------------3--------x-/5-----3-----------------|-------------------------------------------------|
A|-------------------------------------5-----2/----|-9-----9-----10----10---/12----10----------9/----|
E|-1~----------------------------------------------|-------------------------------------12----------|

   1  ^  +  ^  2  ^  +  ^  3  ^  +  ^  4  ^  +  ^    1  ^  +  ^  2  ^  +  ^  3  ^  +  ^  4  ^  +  ^ 
G|-------------------------------------------------|-------------------------------------------------|
D|-------------------------------------------------|-------------------------------------------------|
A|-12\---------0--------------0--0--0--0--0--0--0--|-9\----------------------------------------------|
E|-------------------------------------------------|-------------2--------------2--2--2--2--2--2--2/-|

   1  ^  +  ^  2  ^  +  ^  3  ^  +  ^  4  ^  +  ^    1  ^  +  ^  2  ^  +  ^  3  ^  +  ^  4  ^  +  ^ 
G|-------------------------------------------------|-------------------------------------------------|
D|-------------------------------------------------|----------------------------5--------7-p5--------|
A|-8\----------------------------------------------|------------------------/7--------7--------7/----|
E|-------------1--------------1--1--1--1--1--0--1--|-2-----2-----3-----3-----------------------------|

   1  ^  +  ^  2  ^  +  ^  3  ^  +  ^  4  ^  +  ^    1  ^  +  ^  2  ^  +  ^  3  ^  +  ^  4  ^  +  ^ 
G|-------------------------------------------------|-------------------------------------------------|
D|-------------------------------------------------|-------------------------------------------------|
A|-12\---------0--------------0--0--0--0--0--0--0--|-9\-------------------------------------0--5--7--|
E|-------------------------------------------------|-------------2--------------2--2--2--2-----------|

   1  ^  +  ^  2  ^  +  ^  3  ^  +  ^  4  ^  +  ^    1  ^  +  ^  2  ^  +  ^  3  ^  +  ^  4  ^  +  ^ 
G|-------------------------------------------------|-------------------------------------------------|
D|-------------------------------------------------|----------------------------5-----7-p5-----------|
A|-8\----------------------------------------------|------------------------/7--------------7--------|
E|-------------1--------------1--1--1--1--1--0--1--|-2-----2-----3-----3-----------------------------|

   1  ^  +  ^  2  ^  +  ^  3  ^  +  ^  4  ^  +  ^    1  ^  +  ^  2  ^  +  ^  3  ^  +  ^  4  ^  +  ^ 
G|-------------------------------------------------|-------------------------------------------------|
D|-------------7----------/9-----10----------12----|-------------------------9-----10----------12----|
A|-0-----------------------------------------------|-9-----------------9-----------------------------|
E|-------------------------------------------------|-------------------------------------------------|

   1  ^  +  ^  2  ^  +  ^  3  ^  +  ^  4  ^  +  ^    1  ^  +  ^  2  ^  +  ^  3  ^  +  ^  4  ^  +  ^ 
G|-------------------------------------------------|-------------------------------------------------|
D|-------------------------9-----10----------12----|-------------------------7-----7-----9--7--------|
A|-8-----8-----------8-----------------------------|-9-----9-----10----10----------------------9-----|
E|-------------------------------------------------|-------------------------------------------------|

   1  ^  +  ^  2  ^  +  ^  3  ^  +  ^  4  ^  +  ^    1  ^  +  ^  2  ^  +  ^  3  ^  +  ^  4  ^  +  ^ 
G|-------------------------------------------------|-------------------------------------------------|
D|-------------------7----/9-----10----------12----|-------------------4/----9-----10----------12----|
A|-0-----0--0--0-----------------------------------|-------------------------------------------------|
E|-------------------------------------------------|-2-----2--2--2-----------------------------------|

   1  ^  +  ^  2  ^  +  ^  3  ^  +  ^  4  ^  +  ^    1  ^  +  ^  2  ^  +  ^  3  ^  +  ^  4  ^  +  ^ 
G|-------------------------------------------------|-------------------------------------------------|
D|-------------------3/----9-----10----------12----|-------------------------------------------------|
A|-------------------------------------------------|-------------------------------------------------|
E|-1-----1--1--1-----------------------------------|-2-----2-----3-----3-----5-----5----/10----------|


[Bridge]

   1  ^  +  ^  2  ^  +  ^  3  ^  +  ^  4  ^  +  ^    1  ^  +  ^  2  ^  +  ^  3  ^  +  ^  4  ^  +  ^ 
G|-------------------------------------------------|-------------------------------------------------|
D|-------------------------------------------------|-------------------------------------------------|
A|-------------------------------------------------|-------------------------------------------------|
E|-8~----------------------7~----------/-----------|-/17~--------------------15~---------------------|

   1  ^  +  ^  2  ^  +  ^  3  ^  +  ^  4  ^  +  ^    1  ^  +  ^  2  ^  +  ^  3  ^  +  ^  4  ^  +  ^ 
G|-------------------------------------------------|-------------------------------------------------|
D|-------------4-----------------------------------|-------------------------------------------------|
A|-------------------------------------2/----8-----|-------7-----8-----7-----8-----7-----------7-----|
E|-2-----------------------2-----5--5--------------|-------------------------------------8-----------|

   1  ^  +  ^  2  ^  +  ^  3  ^  +  ^  4  ^  +  ^    1  ^  +  ^  2  ^  +  ^  3  ^  +  ^  4  ^  +  ^ 
G|-------------------------------------------------|-------------------------------------------------|
D|-------------4-----------------------------------|------------------------/10----9-----------------|
A|-------------------------------------2/----8-----|-------7~----------------------------10----7-----|
E|-2-----------------2--2--2-----5--5--------------|-------------------------------------------------|


[Outro]

   1  ^  +  ^  2  ^  +  ^  3  ^  +  ^  4  ^  +  ^    1  ^  +  ^  2  ^  +  ^  3  ^  +  ^  4  ^  +  ^ 
G|-------------------------------------------------|-------------------------------------------------|
D|-------------------------------------------------|-------------------------------------------------|
A|-------------------------------------------------|-------------------------------------------------|
E|-8~----------------10----7~----------------------|-17~---------------------15~---------------------|

   1  ^  +  ^  2  ^  +  ^  3  ^  +  ^  4  ^  +  ^    1  ^  +  ^  2  ^  +  ^  3  ^  +  ^  4  ^  +  ^ 
G|-------------------------------------------------|-------------------------------------------------|
D|-------------------------------------------------|-------------------------------------------------|
A|-------------------------------------------------|-------------------------------------------------|
E|-2~----------------------------2--2--------1~----|-------------------------------1~----------1-----|

   1  ^  +  ^  2  ^  +  ^  3  ^  +  ^  4  ^  +  ^    1  ^  +  ^  2  ^  +  ^  3  ^  +  ^  4  ^  +  ^ 
G|-------------------------------------------------|-------------------------------------------------|
D|-------------------------------------------------|-------------------------------------------------|
A|-------------------------------------------------|-------------------------------------------------|
E|-2~----------------------------2--2--------1~----|-------------------------------1~----------1-----|

   1  ^  +  ^  2  ^  +  ^  3  ^  +  ^  4  ^  +  ^    1  ^  +  ^  2  ^  +  ^  3  ^  +  ^  4  ^  +  ^ 
G|-------------------------------------------------|-------------------------------------------------|
D|-4~----------------------------5-----7-----3~----|-------------------------------------------------|
A|-------------------------------------------------|-------3-----------------------------------------|
E|-------------------------------------------------|-------------1~----------------1--1--1--1--1-----|

   1  ^  +  ^  2  ^  +  ^  3  ^  +  ^  4  ^  +  ^    1  ^  +  ^  2  ^  +  ^  3  ^  +  ^  4  ^  +  ^ 
G|-------------------------------------------------|-------------------------------------------------|
D|-------------------------------------------------|-------------------------------------------------|
A|-------------------------------------------------|-------------------------------------------------|
E|-2~----------------------------3-----5-----1~----|-------------------------------------------------|



************************************

| h   Hammer-on
| p   Pull-off
| \   Slide down
| /   Slide up
| ~   Let ring

************************************
Suggest correction
Creating personal tab
Creating personal tab
You can edit any tab online and save it as your Personal.

You can edit, replace or remove any tab part or add personal notes – all changes will be seen only by you.

Personal tabs can be accessed anytime from any device, even offline.
Learn more »
Give kudos to tab author, rate the tab!
1 2 3 4 5
comments
print report bad tab
guest
You may want to rate the tab now too:
select rating
Wanna post a correction for this tab? Suggest correction