Oops, an error
Loading. Please wait.

My Iron Lung bass

version 1
version 1

Whole song

7,277 views 1 this week
4 commentsread comments
1 2 3 4 5
x 6
add to favorites
×
Save as Personal and add changes to this tab that will be seen only by you. Learn more ›
×
You can save this tab as Personal to edit and correct it or add notes. All changes will be seen only by you. Learn more »
launch autoscroll
font size
0
reset
guitar tuner
backing track
0:00
0:00
edit
Autoscroll
slow
fast
+/-
esc
set tempo
stop
"My Iron Lung" (bass)
Radiohead
by pieter billen 

--------------------------|--------------------------|
--------------------------|--------------------------| repeat 3 times
--------------------------|--3--3--3--3--3--3--3-----|
--3--3--3--3--3--3--3--3--|-----------------------0--|


--------------------------|--------------------------|
--------------------------|--------------------------|
--------------------------|--3--3--5--5--6--6--8--8--|
--3--3--3--3--3--3--3--0--|--------------------------|


/\/\/\/\/\/\/\/\/\/\/\/\/\/\/\/\/\/\/\/\/\/\/\
+  Adrian Morse           +
+  The Radiohead Guitar Archive @ No Alarms  +
+  http://www.waterw.com/~amorse/radiohead/  +
++++++++++++++++++++++++++++++++++++++++++++++
Suggest correction
Creating personal tab
Creating personal tab
You can edit any tab online and save it as your Personal.

You can edit, replace or remove any tab part or add personal notes – all changes will be seen only by you.

Personal tabs can be accessed anytime from any device, even offline.
Learn more »
comments
print report bad tab
4 comments total. Showing first comments.
0 reply
gallagher2006 3,296 Oct 08, 2006 09:33 AM

I think theres more to it than this.

g------------------------------
d-----3-----3------3-----------
a------------------------------
e-3-3----3-3---3-3---2-2-2-1---

This is how my bassist plays the chorus and solo, I think there may be a note or two missing, but listen to the song

0 reply
Mr. Altoid 10 Dec 22, 2007 05:58 AM

There are a lot of fills in the song also.

0 reply
mikeox 61 Jul 04, 2008 09:49 AM

one variation used on recording:
--------------------------|----5----7----8----10-----|
--------------------------|--------------------------|
--------------------------|--3----5----6----8--------|
--3--3--3--3--3--3--3--3--|--------------------------|

guest
Wanna post a correction for this tab? Suggest correction