Oops, an error
Loading. Please wait.

My Iron Lung tab

version 6
version 6
65,287 views 69 this week
3 commentsread comments
1 2 3 4 5
x 32
add to favorites
×
Save as Personal and add changes to this tab that will be seen only by you. Learn more ›
×
You can save this tab as Personal to edit and correct it or add notes. All changes will be seen only by you. Learn more »
launch autoscroll
font size
0
reset
how to read this tab
guitar tuner
backing track
0:00
0:00
edit
Autoscroll
slow
fast
+/-
esc
set tempo
stop
Author
Difficulty
[Intro]
e|--------------------------------------------------------------------|
B|-----3p0------0-------1---------------3p0-----0--------1--------4---|
G|---0--------0---0---0---0-2b3-0-----0-------0---0----2---2----5---5-|
D|----------3-------1-----------------------3--------1--------4-------|
A|--------------------------------------------------------------------|
E|-3-------------------------------3----------------------------------|

e|-----------------------------------------------------------------*-|
B|-----3p0------0-------1--3b5--1-------3p0------0-------1---------*-|
G|---0--------0---0---0---------------0--------0---0---0---0-2b3-0-*-|
D|----------3-------1------------------------3-------1-------------*-|
A|-----------------------------------------------------------------*-|
E|-3--------------------------------3------------------------------*-|

[Verse]
G C G C
Faith, you`re driving me away, you do it everyday,
 You don`t mean it but it hurts like hell.
e|-----------------------------------------------------------------|
B|---------------------------------------3---------4---4---4---4---|
G|-------4---------------5-------------O---0---------7---7---7---7-|
D|-----5---5-----------5---5---------O-------0---------------------|
A|---5-------5-------6-------6-------------------------------------|
E|-3-----------3---3-----------3---3-------------------------------|

 My brain, says I`m receiving pain, a lack of oxygen
e|-------------------------------------------------|
B|--------3-3----1------4-----------3-3---1------4-|
G|--------4-4----0------5-----------4-4---0------5-|
D|--------5-3----1------4-----------5-3---1------4-|
A|--------5-5----0------3-----------5-5---0------3-|
E|----------------------3------------------------3-|

 From my life support, my iron lung
e|-----------------------------------------------------------------|
B|---------------------------------------3---------4---4---4---4---|
G|-------4---------------5-------------O---0---------7---7---7---7-|
D|-----5---5-----------5---5---------O-------0---------------------|
A|---5-------5-------6-------6-------------------------------------|
E|-3-----------3---3-----------3---3-------------------------------|

 /w pitch shifter set +1 octave
e|-----------------------------------------------------------------|
B|-----3p0------0-------1---------------3p0-----0--------1-3-3b5-1-|
G|---0--------0---0---0---0-2b3-0-----0-------0---0----0-----------|
D|----------3-------1-----------------------3--------1-------------|
A|-----------------------------------------------------------------|
E|-3-------------------------------3-------------------------------|

[Verse]
/w pitch shifter set +1 octave
 We`re too young to fall asleep, too cynical to speak
e|---------------------------------------------------|
B|-------------------8---4-3--------------8---4--3---|
G|---------------------------0---------------------0-|
D|---------------------------------------------------|
A|---------------------------------------------------|
E|---------------------------------------------------|

 We are losing it can`t you tell?
e|------------------------------------------------*-|
B|-----------------8-4-3----3-------------4--4--4-*-|
G|------------------------------------------7--7--*-|
D|------------------------------------------------*-|
A|------------------------------------------------*-|
E|------------------------------------------------*-|

 G G
 We scratch our eternal itch, our twentieth century bitch,
e|----------------------------------------------------|
B|-----------3-3----1------4-----------3-3---1------4-|
G|-----------4-4----0------5-----------4-4---0------5-|
D|-----------5-3----1------4-----------5-3---1------4-|
A|-----------5-5----0------3-----------5-5---0------3-|
E|-------------------------3------------------------3-|

 We are grateful for our iron lung
e|-----------------------------------------------------------------|
B|---------------------------------------3---------4---4---4---4---|
G|-------4---------------5-------------O-------------7---7---7---7-|
D|-----5---5-----------5---5---------O-----------------------------|
A|---5-------5-------6-------6-------------------------------------|
E|-3-----------3---3-----------3---3-------------------------------|

 /w pitch shifter set +1 octave
e|-------------------------------------------------*-|
B|-----3-O-----O-------1---------------3-O-----O---*-|
G|---O-------O---O---O-----2-3-2-O---O-------O---O-*-|
D|---------3-------1-----1-----------------3-------*-|
A|-------------------------------------------------*-|
E|-3-------------------------------3---------------*-|

[Chorus]
 w/Distortion
e|----------------------|
B|----------------------|
G|----------------------|
D|--9-8-7-6-5-5-5-4-4-4-|
A|-10-9-8-7-6-6-6-5-5-5-|
E|----------------------|

e|--------------------------------------|
B|-----3b-------3b----------------------|
G|-----3b-------3b---------3---3-3-3----|
D|------------------------------------2-|
A|-----------------x-3-3--------------2-|
E|-3-3----x-3-3-----------------------O-|

e|--------------------------------------|
B|---3b-------3b------------------------|
G|---3b-------3b------------------------|
D|------------------9-8-7-6-5-5-5-4-4-4-| (x2)
A|-----------------10-9-8-7-6-6-6-5-5-5-|
E|-3----x-3-3---------------------------|

 /w pitch shifter set +1 octave
e|--------------------------------------------------------------------*-|
B|-----3p0------0-------1---------------3p0-----0--------1--------4---*-|
G|---0--------0---0---0---0-2b3-0-----0-------0---0----2---2----5---5-*-|
D|----------3-------1-----------------------3--------1--------4-------*-|
A|--------------------------------------------------------------------*-|
E|-3-------------------------------3----------------------------------*-|

[Verse]
 G Cm G Cm
 Suck, suck your teenaqe thumb, toilet trained and dumb,
e|-------------------------------------------------------------|
B|---------------3------------------------3--------------------|
G|-------------------5----4---------------------5---4----------|
D|-----------5----------------------5--------------------5-----|
A|------3-----------------------3--------------------------5---|
E|-----------------------------------------------------------3-|

 When the power runs out we`ll just hum
e|---------------------------------------------------------|
B|---------------------------------------4-3-4-3-----4-3---|
G|---------4--------------4----------------------0-------0-|
D|-----------5--------------5------------------------------|
A|-------------5--------------5----------------------------|
E|---------------3-----------------------------------------|

[Verse]
G G
This, this is our new song, just like the last one
 A total waste of time, my iron lung
e|-----------------------------------------|
B|---------------------------------------3-|
G|-------4---------------5-------------O---|
D|-----5---5-----------5---5---------O-----|
A|---5-------5-------6-------6-------------|
E|-3-----------3---3-----------3---3-------|

[Chorus]
 w/Distortion
e|----------------------|
B|----------------------|
G|----------------------|
D|--9-8-7-6-5-5-5-4-4-4-|
A|-10-9-8-7-6-6-6-5-5-5-|
E|----------------------|

e|--------------------------------------|
B|-----3b-------3b----------------------|
G|-----3b-------3b---------3---3-3-3----|
D|------------------------------------2-|
A|-----------------x-3-3--------------2-|
E|-3-3----x-3-3-----------------------0-|

e|--------------------------------------|
B|---3b-------3b------------------------|
G|---3b-------3b------------------------|
D|------------------9-8-7-6-5-5-5-4-4-4-| (x2)
A|-----------------10-9-8-7-6-6-6-5-5-5-|
E|-3----x-3-3---------------------------|

[Solo]
e|------------------------------------------------------------|
B|------------------------------------------------------------|
G|----------5p3-----------5p3----------5p3-5-5b7-5b7-5b7-3----|
D|----------------------------------------------------------2-|
A|-x-x-x---------x-x-x---------x-x-x------------------------2-|
E|-x-x-x--3------x-x-x--3------x-x-x--3---------------------0-|

e|------------------------------------------|
B|------------------------------------------|
G|---5p3----------5b7-----------------------|
D|----------------------9-8-7-6-5-5-5-4-4-4-|
A|-------x-x-x---------10-9-8-7-6-6-6-5-5-5-|
E|-3-----x-x-x--3---------------------------|

e|---------------------------------------------------|
B|----------6b8------------6b8-----------6b8-6-6-6---|
G|----------6b8------------6b8-----------6b8-6-6-6---|
D|-------------------------------------------------2-|
A|-x-x-x----------x-x-x---------x-x-x--------------2-|
E|-x-x-x--3-------x-x-x--3------x-x-x--3-----------O-|

e|------------------------------------------|
B|---6b8----------6b8-----------------------|
G|---6b8----------6b8-----------------------|
D|----------------------9-8-7-6-5-5-5-4-4-4-|
A|-------x-x-x---------10-9-8-7-6-6-6-5-5-5-|
E|-3-----x-x-x--3---------------------------|

[Bridge]
Bflat C* Dflat C*
And if you`re frightened, you can be frightened, you can be that`s ok
Bflat C* Dflat C#m6 Cm6
And if you`re frightened, you can be frightened, you can be that`s ok

[Solo]
e|-------6---------------6-8-12b14-8-8-6------------------------6-|
B|-6-7-8---6-7-8---6-7-8-----------------8--8--8--8--8--8--8--8---|
G|----------------------------------------------------------------|
D|---------------8------------------------------------------------|
A|----------------------------------------------------------------|
E|----------------------------------------------------------------|

e|-------6---------------6-8-12b14-8-8-6------------------------|
B|-6-7-8---6-7-8---6-7-8-----------------8--8--8--8--8--8--8--8-|
G|--------------------------------------------------------------|
D|---------------8----------------------------------------------|
A|--------------------------------------------------------------|
E|--------------------------------------------------------------|

[Chorus]
 w/Distortion
e|----------------------|
B|----------------------|
G|----------------------|
D|--9-8-7-6-5-5-5-4-4-4-|
A|-10-9-8-7-6-6-6-5-5-5-|
E|----------------------|

e|--------------------------------------|
B|-----3b-------3b----------------------|
G|-----3b-------3b---------3---3-3-3----|
D|------------------------------------2-|
A|-----------------x-3-3--------------2-|
E|-3-3----x-3-3-----------------------O-|

e|--------------------------------------|
B|---3b-------3b------------------------|
G|---3b-------3b------------------------|
D|------------------9-8-7-6-5-5-5-4-4-4-|
A|-----------------10-9-8-7-6-6-6-5-5-5-|
E|-3----x-3-3---------------------------|



************************************

| p  Pull-off
| b  Bend
| *  Natural harmonic
| x  Dead note
| O  

************************************

            
            
Suggest correction
Creating personal tab
Creating personal tab
You can edit any tab online and save it as your Personal.

You can edit, replace or remove any tab part or add personal notes – all changes will be seen only by you.

Personal tabs can be accessed anytime from any device, even offline.
Learn more »
comments
print report bad tab
3 comments total.
+6 reply
jmdinardo 10 Jan 31, 2014 11:22 AM

Good tab, buddy. I really enjoyed learning this song. I do have a few corrections to make, I believe.

Chorus should be:

e-----------------------------|
B-----------------------------|
G-12--11-10-9--8-8-8-7-7-7-----|
D--9--8--7--6--5-5-5-4-4-4-----|
A-10--9--8--7--6-6-6-5-5-5-----|
E-----------------------------|

e--------------------------------------|
B-----3b-------3b----------------------|
G-----3b-------3b---------3---3-3-3----|
D------------------------------------2-|
A-----------------x-3-3--------------2-|
E-3-3----x-3-3-----------------------O-|

e--------------------------------------|
B---3b-------3b------------------------|
G---3b-------3b------------------------|
D------------------9-8-7-6-5-5-5-4-4-4-|
A-----------------10-9-8-7-6-6-6-5-5-5-|
E-0----x-0-0---------------------------|

Then on the 2nd solo, I hear this:
Solo 2:

e-------6b-------6b------6h8p6-10b12-8-8-6------------------------6-|
B-6-7-8----6-7-8----6-7-8------------------8--8--8--8--8--8--8--8---|
G-------------------------------------------------------------------|
D-------------------------------------------------------------------|
A-------------------------------------------------------------------|
E-------------------------------------------------------------------|

e-10-------6b-------6b------6h8p6-10b12-8-8-6------------------------6-|
B----6-7-8----6-7-8----6-7-8------------------8--8--8--8--8--8--8--8---|
G----------------------------------------------------------------------|
D----------------------------------------------------------------------|
A----------------------------------------------------------------------|
E----------------------------------------------------------------------|

0 reply
floydfan2804 10 Mar 12, 2016 02:51 PM

four letters

H

0 reply
nosbled 10 Apr 04, 2016 08:01 AM

Some parts are well tabbed but I think you overlooked some parts where it's clearly wrong, for example Verse 2 and part 2 of Verse 3 (in addition to jmdinardo's correction).

guest
You may want to rate the tab now too:
select rating
Wanna post a correction for this tab? Suggest correction