Oops, an error
Loading. Please wait.

Myxomatosis tab

version 4
version 4

Whole song

Interactive

412 views 21 this week
no commentswrite comment
1 2 3 4 5
3 more votes to show rating
add to favorites
×
Save as Personal and add changes to this tab that will be seen only by you. Learn more ›
×
You can save this tab as Personal to edit and correct it or add notes. All changes will be seen only by you. Learn more »
launch autoscroll
font size
0
reset
how to read this tab
guitar tuner
edit
Autoscroll
slow
fast
+/-
esc
set tempo
stop
Author
Song: Myxomatosis
Artist: Radiohead
Album: Hail to the Thief

Tuning BADGBe  No Capo  Heavy Distortion, almost a metal tone here

This song is played with a keybord that is substituted for
the A-string line.
Strong down strokes and let every note ring out until the next strum.

[Intro]
e|-----------------------------------------------------------------|
B|-----------------------------------------------------------------|
G|-----------------------------------------------------------------|
D|-----------------------------------------------------------------|  x2
A|---10-7-9-5-7--3-5-2-3-14-15--10-7-9-5-7--12-10-7--17-12-14------|
E|---8--5-7-3-5--1-3-0-1-12-13--8--5-7-3-5--10-8--5--15-10-12------|

[Verse]
Repeat every two lines of lyrics.
e|-----------------------------------------------------------------|
B|-----------------------------------------------------------------|
G|-----------------------------------------------------------------|
D|-----------------------------------------------------------------|  
A|---10-7-9-5-7--3-5-2-3-14-15--10-7-9-5-7--12-10-7--17-12-14------|
E|---8--5-7-3-5--1-3-0-1-12-13--8--5-7-3-5--10-8--5--15-10-12------|


[Chorus] 
No guitar played here. You're covered.

[Verse]
The mongrel cat came home
Holding half a head
Proceeded to show it off
To all his new found friends
He said I been where I liked
I slept with who I like
She ate me up for breakfast
She screwed me in a vice
But now

[Chorus]
I don't know why
I feel so tongue-tied

[Intro]

[Verse]
I sat in the cupboard
And wrote it down real neat 
They were cheering and waving
Cheering and waving
Twitching and salivating like with myxomatosis
But it got edited fucked up
Strangled beaten up
Used in a photo in time magazine
Buried in a burning black hole in Devon

[Chorus]
I don't know why I feel so tongue-tied
Don't know why
I feel
So skinned alive.

[Intro]

[Verse]
My thoughts are misguided and a little naive
I twitch and I salivate like with myxomatosis
You should put me in a home or you should put me down
I got myxomatosis
I got myxomatosis
Yeah no one likes a smart ass but we all like stars
But that wasn't my intention, I did it for a reason
It must have got mixed up
Strangled beaten up
I got myxomatosis 
I got myxomatosis

[Chorus]
I don't know why I
Feel so tongue-tied

[Outro]

e|-----------------------------------------------------------------|
B|-----------------------------------------------------------------|
G|-----------------------------------------------------------------|
D|-----------------------------------------------------------------|  
A|---10-7-9-5-7--3-5-2-3-14-15--10-7-9-5-7--12-10-7--17-12-14------|
E|---8--5-7-3-5--1-3-0-1-12-13--8--5-7-3-5--10-8--5--15-10-12------|

            
            
Suggest correction
Creating personal tab
Creating personal tab
You can edit any tab online and save it as your Personal.

You can edit, replace or remove any tab part or add personal notes – all changes will be seen only by you.

Personal tabs can be accessed anytime from any device, even offline.
Learn more »
Give kudos to tab author, rate the tab!
1 2 3 4 5
comments
print report bad tab
guest
You may want to rate the tab now too:
select rating
Wanna post a correction for this tab? Suggest correction