Oops, an error
Loading. Please wait.

Nude Tab

version 1
version 1

Whole song

Interactive

58,424 views 99 this week
no commentswrite comment
1 2 3 4 5
accurate
x 10
add to favorites
launch autoscroll
font size
0
reset
how to read this tab
guitar tuner
Autoscroll
slow
fast
+/-
esc
set tempo
stop
Help us to improve Ultimate-Guitar.com Take our survey!
×
Author
-------------------------------------------------------------------------------
                             NUDE - Radiohead
-------------------------------------------------------------------------------
Tabbed by:  Halcyon91
Email:  Halcyon91@gmail.com

Tuning:  Standard

e|----4-----4-----4-----4-----5-----0-----9-----9-----7-----7--|
B|---4-4---4-4---4-4---4-4---5-5---0-----9-9---9-9---7-7---7-7-|
G|--4---4-4---4-5---5-5---5-6---6-1-----9---9-9---9-8---8-8---8|
D|-------------------------------------------------------------|
A|-------------------------------------------------------------|
E|-4-----4-----4-----4-----5-----0-----9-----9-----7-----7-----|

      YOU PAINT YOURSELF WHITE…

e|----------------------------7-0-------7-0--------------------|
B|----7-----------7-----------X---------X----------------------|
G|--8-X-9-8-----8-X-9-8-----9-X--9-6--9-X--9-------------------|
D|----X-----9-----X-----7-9---X-----9---X----------------------|
A|----X------9-7--X--------7--X------7--X----------------------|
E|----X-----------X-----------X---------X----------------------|

NOW THAT YOU’VE FOUND IT…

e|---------------------------------7-0-------7-0---------------|
B|---------7-----------7-----------X---------X-----------------|
G|-------8-X-9-8-----8-X-9-8-----9-X--9-6--9-X--9--------------|
D|---------X-----9-----X-----7-9---X-----9---X-----------------|
A|-7-9-7---X------9-7--X--------7--X------7--X-----------------|
E|---------X-----------X-----------X---------X-----------------|

NOW THAT YOU FEEL IT…



e|--------7-0-----7-9-7----------------------------------------|
B|------9-X---9-----X---9-7-5-----5-----5----------------------|
G|--------X----9----X---------6-4---6-4------------------------|
D|-6-9----X-----9---X------------------------------------------|
A|-----7--X------7--X------------------------------------------|
E|--------X---------X------------------------------------------|

YOU’VE GONE OFF THE RAILS…

e|-------------------------------------------------------------|
B|-------------------------------------------------------------|
G|------9----9--8--------9----9--8------8--8-6-----8--8-6------|
D|--11--11---11------11--11---11------9-9--9-----9-9--9--------|
A|----11---11----11----11---11----11---9--9---9---9--9---9-----|
E|-9----------------9----------------7----------7--------------|

… GONNA HAPPEN.

e|-----4-4-4-----4-4-4-----4-4-4-4-----4------5----------------|
B|-----4-4-4-----4-4-4-----4-4-4-4-----------------------------|
G|-----5-5-5-----5-5-5-----5-5-5-5----5-5----6-6---------------|
D|---6-6-6-6---6-6-6-6---6-6-6-6-6---6------7------2-6-4-2/----|
A|--6--6------6--6------6--6--------6------7------2------------|
E|-4---4-----4---4-----4---4-------4------5------0---------9---|

OOH, YOU’LL GO TO HELL…

| /  slide up
| \  slide down
| h  hammer-on
| p  pull-off
| ~  vibrato
| +  harmonic
| x  Mute note
===============================================================================
Suggest correction
comments
print report bad tab
guest
You may want to rate the tab now too:
select rating
Please do not post tabs as comments. Select "correction" instead!